  0
SECTION
  2
HEADER
  9
$ACADVER
  1
AC1015
  9
$ACADMAINTVER
 70
     6
  9
$DWGCODEPAGE
  3
ANSI_1254
  9
$INSBASE
 10
0.0
 20
0.0
 30
0.0
  9
$EXTMIN
 10
0.0
 20
0.0
 30
0.0
  9
$EXTMAX
 10
279.4
 20
215.9
 30
0.0
  9
$LIMMIN
 10
0.0
 20
0.0
  9
$LIMMAX
 10
279.4
 20
215.9
  9
$ORTHOMODE
 70
     0
  9
$REGENMODE
 70
     1
  9
$FILLMODE
 70
     1
  9
$QTEXTMODE
 70
     0
  9
$MIRRTEXT
 70
     1
  9
$LTSCALE
 40
1.0
  9
$ATTMODE
 70
     1
  9
$TEXTSIZE
 40
3.5
  9
$TRACEWID
 40
1.0
  9
$TEXTSTYLE
  7
Standard
  9
$CLAYER
  8
0
  9
$CELTYPE
  6
ByLayer
  9
$CECOLOR
 62
   256
  9
$CELTSCALE
 40
1.0
  9
$DISPSILH
 70
     0
  9
$DIMSCALE
 40
1.0
  9
$DIMASZ
 40
3.5
  9
$DIMEXO
 40
1.0
  9
$DIMDLI
 40
3.75
  9
$DIMRND
 40
0.0
  9
$DIMDLE
 40
0.0
  9
$DIMEXE
 40
1.0
  9
$DIMTP
 40
0.0
  9
$DIMTM
 40
0.0
  9
$DIMTXT
 40
3.5
  9
$DIMCEN
 40
2.5
  9
$DIMTSZ
 40
0.0
  9
$DIMTOL
 70
     0
  9
$DIMLIM
 70
     0
  9
$DIMTIH
 70
     1
  9
$DIMTOH
 70
     1
  9
$DIMSE1
 70
     0
  9
$DIMSE2
 70
     0
  9
$DIMTAD
 70
     1
  9
$DIMZIN
 70
     0
  9
$DIMBLK
  1

  9
$DIMASO
 70
     1
  9
$DIMSHO
 70
     1
  9
$DIMPOST
  1

  9
$DIMAPOST
  1

  9
$DIMALT
 70
     0
  9
$DIMALTD
 70
     3
  9
$DIMALTF
 40
0.0393700787
  9
$DIMLFAC
 40
1.0
  9
$DIMTOFL
 70
     1
  9
$DIMTVP
 40
0.0
  9
$DIMTIX
 70
     0
  9
$DIMSOXD
 70
     0
  9
$DIMSAH
 70
     0
  9
$DIMBLK1
  1

  9
$DIMBLK2
  1

  9
$DIMSTYLE
  2
ISO-25
  9
$DIMCLRD
 70
     0
  9
$DIMCLRE
 70
     0
  9
$DIMCLRT
 70
     0
  9
$DIMTFAC
 40
1.0
  9
$DIMGAP
 40
1.524
  9
$DIMJUST
 70
     0
  9
$DIMSD1
 70
     0
  9
$DIMSD2
 70
     0
  9
$DIMTOLJ
 70
     0
  9
$DIMTZIN
 70
     0
  9
$DIMALTZ
 70
     0
  9
$DIMALTTZ
 70
     0
  9
$DIMUPT
 70
     0
  9
$DIMDEC
 70
     2
  9
$DIMTDEC
 70
     2
  9
$DIMALTU
 70
     2
  9
$DIMALTTD
 70
     3
  9
$DIMTXSTY
  7
Standard
  9
$DIMAUNIT
 70
     0
  9
$DIMADEC
 70
     2
  9
$DIMALTRND
 40
0.0
  9
$DIMAZIN
 70
     0
  9
$DIMDSEP
 70
    44
  9
$DIMATFIT
 70
     3
  9
$DIMFRAC
 70
     0
  9
$DIMLDRBLK
  1

  9
$DIMLUNIT
 70
     2
  9
$DIMLWD
 70
    -2
  9
$DIMLWE
 70
    -2
  9
$DIMTMOVE
 70
     0
  9
$LUNITS
 70
     2
  9
$LUPREC
 70
     2
  9
$SKETCHINC
 40
1.0
  9
$FILLETRAD
 40
10.0
  9
$AUNITS
 70
     0
  9
$AUPREC
 70
     2
  9
$MENU
  1
.
  9
$ELEVATION
 40
0.0
  9
$PELEVATION
 40
0.0
  9
$THICKNESS
 40
0.0
  9
$LIMCHECK
 70
     0
  9
$CHAMFERA
 40
0.0
  9
$CHAMFERB
 40
0.0
  9
$CHAMFERC
 40
0.0
  9
$CHAMFERD
 40
0.0
  9
$SKPOLY
 70
     0
  9
$TDCREATE
 40
2459741.591002975
  9
$TDUCREATE
 40
2459741.466002975
  9
$TDUPDATE
 40
2459741.591004861
  9
$TDUUPDATE
 40
2459741.466004861
  9
$TDINDWG
 40
0.0000000116
  9
$TDUSRTIMER
 40
0.0000000116
  9
$USRTIMER
 70
     1
  9
$ANGBASE
 50
0.0
  9
$ANGDIR
 70
     0
  9
$PDMODE
 70
     0
  9
$PDSIZE
 40
-1.0
  9
$PLINEWID
 40
0.0
  9
$SPLFRAME
 70
     0
  9
$SPLINETYPE
 70
     6
  9
$SPLINESEGS
 70
     8
  9
$HANDSEED
  5
178
  9
$SURFTAB1
 70
     6
  9
$SURFTAB2
 70
     6
  9
$SURFTYPE
 70
     6
  9
$SURFU
 70
     6
  9
$SURFV
 70
     6
  9
$UCSBASE
  2

  9
$UCSNAME
  2

  9
$UCSORG
 10
0.0
 20
0.0
 30
0.0
  9
$UCSXDIR
 10
1.0
 20
0.0
 30
0.0
  9
$UCSYDIR
 10
0.0
 20
1.0
 30
0.0
  9
$UCSORTHOREF
  2

  9
$UCSORTHOVIEW
 70
     0
  9
$UCSORGTOP
 10
0.0
 20
0.0
 30
0.0
  9
$UCSORGBOTTOM
 10
0.0
 20
0.0
 30
0.0
  9
$UCSORGLEFT
 10
0.0
 20
0.0
 30
0.0
  9
$UCSORGRIGHT
 10
0.0
 20
0.0
 30
0.0
  9
$UCSORGFRONT
 10
0.0
 20
0.0
 30
0.0
  9
$UCSORGBACK
 10
0.0
 20
0.0
 30
0.0
  9
$PUCSBASE
  2

  9
$PUCSNAME
  2

  9
$PUCSORG
 10
0.0
 20
0.0
 30
0.0
  9
$PUCSXDIR
 10
1.0
 20
0.0
 30
0.0
  9
$PUCSYDIR
 10
0.0
 20
1.0
 30
0.0
  9
$PUCSORTHOREF
  2

  9
$PUCSORTHOVIEW
 70
     0
  9
$PUCSORGTOP
 10
0.0
 20
0.0
 30
0.0
  9
$PUCSORGBOTTOM
 10
0.0
 20
0.0
 30
0.0
  9
$PUCSORGLEFT
 10
0.0
 20
0.0
 30
0.0
  9
$PUCSORGRIGHT
 10
0.0
 20
0.0
 30
0.0
  9
$PUCSORGFRONT
 10
0.0
 20
0.0
 30
0.0
  9
$PUCSORGBACK
 10
0.0
 20
0.0
 30
0.0
  9
$USERI1
 70
     0
  9
$USERI2
 70
     0
  9
$USERI3
 70
     0
  9
$USERI4
 70
     0
  9
$USERI5
 70
     0
  9
$USERR1
 40
0.0
  9
$USERR2
 40
0.0
  9
$USERR3
 40
0.0
  9
$USERR4
 40
0.0
  9
$USERR5
 40
0.0
  9
$WORLDVIEW
 70
     1
  9
$SHADEDGE
 70
     3
  9
$SHADEDIF
 70
    70
  9
$TILEMODE
 70
     1
  9
$MAXACTVP
 70
    64
  9
$PINSBASE
 10
0.0
 20
0.0
 30
0.0
  9
$PLIMCHECK
 70
     0
  9
$PEXTMIN
 10
1.0000000000E+20
 20
1.0000000000E+20
 30
1.0000000000E+20
  9
$PEXTMAX
 10
-1.0000000000E+20
 20
-1.0000000000E+20
 30
-1.0000000000E+20
  9
$PLIMMIN
 10
0.0
 20
0.0
  9
$PLIMMAX
 10
420.0
 20
297.0
  9
$UNITMODE
 70
     0
  9
$VISRETAIN
 70
     1
  9
$PLINEGEN
 70
     0
  9
$PSLTSCALE
 70
     1
  9
$TREEDEPTH
 70
  3020
  9
$CMLSTYLE
  2
Standard
  9
$CMLJUST
 70
     0
  9
$CMLSCALE
 40
20.0
  9
$PROXYGRAPHICS
 70
     1
  9
$MEASUREMENT
 70
     1
  9
$CELWEIGHT
370
    -1
  9
$ENDCAPS
280
     0
  9
$JOINSTYLE
280
     0
  9
$LWDISPLAY
290
     1
  9
$INSUNITS
 70
     4
  9
$HYPERLINKBASE
  1

  9
$STYLESHEET
  1

  9
$XEDIT
290
     1
  9
$CEPSNTYPE
380
     0
  9
$PSTYLEMODE
290
     1
  9
$FINGERPRINTGUID
  2
{acd1b491-3c72-418a-b5a9-01d62223e27a}
  9
$VERSIONGUID
  2
{FAEB1C32-E019-11D5-929B-00C0DF256EC4}
  9
$EXTNAMES
290
     1
  9
$PSVPSCALE
 40
0.0
  9
$OLESTARTUP
290
     0
  0
ENDSEC
  0
SECTION
  2
CLASSES
  0
CLASS
  1
ACDBDICTIONARYWDFLT
  2
AcDbDictionaryWithDefault
  3
ObjectDBX Classes
 90
        0
280
     0
281
     0
  0
CLASS
  1
VISUALSTYLE
  2
AcDbVisualStyle
  3
ObjectDBX Classes
 90
     4095
280
     0
281
     0
  0
CLASS
  1
MATERIAL
  2
AcDbMaterial
  3
ObjectDBX Classes
 90
     1153
280
     0
281
     0
  0
CLASS
  1
SCALE
  2
AcDbScale
  3
ObjectDBX Classes
 90
     1153
280
     0
281
     0
  0
CLASS
  1
TABLESTYLE
  2
AcDbTableStyle
  3
ObjectDBX Classes
 90
     4095
280
     0
281
     0
  0
CLASS
  1
MLEADERSTYLE
  2
AcDbMLeaderStyle
  3
ACDB_MLEADERSTYLE_CLASS
 90
     4095
280
     0
281
     0
  0
CLASS
  1
SUN
  2
AcDbSun
  3
SCENEOE
 90
     1153
280
     0
281
     0
  0
CLASS
  1
ACDBPLACEHOLDER
  2
AcDbPlaceHolder
  3
ObjectDBX Classes
 90
        0
280
     0
281
     0
  0
CLASS
  1
LAYOUT
  2
AcDbLayout
  3
ObjectDBX Classes
 90
        0
280
     0
281
     0
  0
ENDSEC
  0
SECTION
  2
TABLES
  0
TABLE
  2
VPORT
  5
8
330
0
100
AcDbSymbolTable
 70
     1
  0
VPORT
  5
29
330
8
100
AcDbSymbolTableRecord
100
AcDbViewportTableRecord
  2
*Active
 70
     0
 10
0.0
 20
0.0
 11
1.0
 21
1.0
 12
139.7
 22
107.95
 13
0.0
 23
0.0
 14
10.0
 24
10.0
 15
10.0
 25
10.0
 16
0.0
 26
0.0
 36
1.0
 17
0.0
 27
0.0
 37
0.0
 40
215.9
 41
1.2941176471
 42
50.0
 43
0.0
 44
0.0
 50
0.0
 51
0.0
 71
     0
 72
  2000
 73
     1
 74
     3
 75
     0
 76
     0
 77
     0
 78
     0
281
     0
 65
     1
110
0.0
120
0.0
130
0.0
111
1.0
121
0.0
131
0.0
112
0.0
122
1.0
132
0.0
 79
     0
146
0.0
  0
ENDTAB
  0
TABLE
  2
LTYPE
  5
5
330
0
100
AcDbSymbolTable
 70
     6
  0
LTYPE
  5
14
330
5
100
AcDbSymbolTableRecord
100
AcDbLinetypeTableRecord
  2
ByBlock
 70
     0
  3

 72
    65
 73
     0
 40
0.0
  0
LTYPE
  5
15
330
5
100
AcDbSymbolTableRecord
100
AcDbLinetypeTableRecord
  2
ByLayer
 70
     0
  3

 72
    65
 73
     0
 40
0.0
  0
LTYPE
  5
16
330
5
100
AcDbSymbolTableRecord
100
AcDbLinetypeTableRecord
  2
Continuous
 70
     0
  3
Solid line
 72
    65
 73
     0
 40
0.0
  0
LTYPE
  5
6E
330
5
100
AcDbSymbolTableRecord
100
AcDbLinetypeTableRecord
  2
HIDDEN
 70
     0
  3
Hidden __ __ __ __ __ __ __ __ __ __ __ __ __ __
 72
    65
 73
     2
 40
1.905
 49
1.27
 74
     0
 49
-0.635
 74
     0
  0
LTYPE
  5
6F
330
5
100
AcDbSymbolTableRecord
100
AcDbLinetypeTableRecord
  2
PHANTOM
 70
     0
  3
Phantom ______  __  __  ______  __  __  ______
 72
    65
 73
     6
 40
12.7
 49
6.35
 74
     0
 49
-1.27
 74
     0
 49
1.27
 74
     0
 49
-1.27
 74
     0
 49
1.27
 74
     0
 49
-1.27
 74
     0
  0
LTYPE
  5
70
330
5
100
AcDbSymbolTableRecord
100
AcDbLinetypeTableRecord
  2
CENTER
 70
     0
  3
Center ____ _ ____ _ ____ _ ____ _ ____ _ ____
 72
    65
 73
     4
 40
10.16
 49
6.35
 74
     0
 49
-1.27
 74
     0
 49
1.27
 74
     0
 49
-1.27
 74
     0
  0
LTYPE
  5
71
330
5
100
AcDbSymbolTableRecord
100
AcDbLinetypeTableRecord
  2
CENTERX2
 70
     0
  3
Center (2x) ________  __  ________  __  _____
 72
    65
 73
     4
 40
20.32
 49
12.7
 74
     0
 49
-2.54
 74
     0
 49
2.54
 74
     0
 49
-2.54
 74
     0
  0
LTYPE
  5
72
330
5
100
AcDbSymbolTableRecord
100
AcDbLinetypeTableRecord
  2
DOT2
 70
     0
  3
Dot (.5x) ........................................
 72
    65
 73
     2
 40
0.635
 49
0.0
 74
     0
 49
-0.635
 74
     0
  0
ENDTAB
  0
TABLE
  2
LAYER
  5
2
330
0
100
AcDbSymbolTable
 70
    17
  0
LAYER
  5
10
330
2
100
AcDbSymbolTableRecord
100
AcDbLayerTableRecord
  2
0
 70
     0
 62
     7
  6
Continuous
370
    -3
390
F
  0
LAYER
  5
73
330
2
100
AcDbSymbolTableRecord
100
AcDbLayerTableRecord
  2
FORMAT
 70
     0
 62
     7
  6
Continuous
370
    -3
390
F
  0
LAYER
  5
74
330
2
100
AcDbSymbolTableRecord
100
AcDbLayerTableRecord
  2
YARDIMCI_GEOMETRI
 70
     0
 62
    -6
  6
Continuous
290
     0
370
    -3
390
F
  0
LAYER
  5
75
330
2
100
AcDbSymbolTableRecord
100
AcDbLayerTableRecord
  2
SAYFA_CERCEVESI
 70
     0
 62
     7
  6
Continuous
370
    25
390
F
  0
LAYER
  5
76
330
2
100
AcDbSymbolTableRecord
100
AcDbLayerTableRecord
  2
ANTET
 70
     0
 62
     7
  6
Continuous
370
    -3
390
F
  0
LAYER
  5
77
330
2
100
AcDbSymbolTableRecord
100
AcDbLayerTableRecord
  2
OLCU
 70
     0
 62
   150
  6
Continuous
370
    -3
390
F
  0
LAYER
  5
78
330
2
100
AcDbSymbolTableRecord
100
AcDbLayerTableRecord
  2
METIN
 70
     0
 62
    96
  6
Continuous
370
    -3
390
F
  0
LAYER
  5
79
330
2
100
AcDbSymbolTableRecord
100
AcDbLayerTableRecord
  2
BALON
 70
     0
 62
     5
  6
Continuous
370
    -3
390
F
  0
LAYER
  5
7A
330
2
100
AcDbSymbolTableRecord
100
AcDbLayerTableRecord
  2
VURGU
 70
     0
 62
     7
  6
Continuous
370
    -3
390
F
  0
LAYER
  5
7B
330
2
100
AcDbSymbolTableRecord
100
AcDbLayerTableRecord
  2
SILIK
 70
     0
 62
     7
  6
Continuous
370
    -3
390
F
  0
LAYER
  5
7C
330
2
100
AcDbSymbolTableRecord
100
AcDbLayerTableRecord
  2
MODEL
 70
     0
 62
     7
  6
Continuous
370
    -3
390
F
  0
LAYER
  5
7D
330
2
100
AcDbSymbolTableRecord
100
AcDbLayerTableRecord
  2
DETAYLANDıRMA
 70
     0
 62
   190
  6
Continuous
370
    -3
390
F
  0
LAYER
  5
7E
330
2
100
AcDbSymbolTableRecord
100
AcDbLayerTableRecord
  2
TOLERANS
 70
     0
 62
   230
  6
Continuous
370
    -3
390
F
  0
LAYER
  5
7F
330
2
100
AcDbSymbolTableRecord
100
AcDbLayerTableRecord
  2
MERKEZ_CIZGILERI
 70
     0
 62
    30
  6
Continuous
370
    -3
390
F
  0
LAYER
  5
80
330
2
100
AcDbSymbolTableRecord
100
AcDbLayerTableRecord
  2
KESIT-DETAY_CIZGILERI
 70
     0
 62
     7
  6
Continuous
370
    -3
390
F
  0
LAYER
  5
81
330
2
100
AcDbSymbolTableRecord
100
AcDbLayerTableRecord
  2
\U+041E\U+0421\U+0415\U+0412\U+042B\U+0415
 70
     0
 62
     7
  6
Continuous
370
    -3
390
F
  0
LAYER
  5
82
330
2
100
AcDbSymbolTableRecord
100
AcDbLayerTableRecord
  2
\U+0412\U+041E\U+0414\U+042F\U+041D\U+042B\U+0415_\U+0417\U+041D\U+0410\U+041A\U+0418
 70
     0
 62
    11
  6
Continuous
370
    -3
390
F
  0
ENDTAB
  0
TABLE
  2
STYLE
  5
3
330
0
100
AcDbSymbolTable
 70
     1
  0
STYLE
  5
11
330
3
100
AcDbSymbolTableRecord
100
AcDbTextStyleTableRecord
  2
Standard
 70
     0
 40
0.0
 41
1.0
 50
0.0
 71
     0
 42
3.5
  3
txt
  4

  0
ENDTAB
  0
TABLE
  2
VIEW
  5
6
330
0
100
AcDbSymbolTable
 70
     0
  0
ENDTAB
  0
TABLE
  2
UCS
  5
7
330
0
100
AcDbSymbolTable
 70
     0
  0
ENDTAB
  0
TABLE
  2
APPID
  5
9
330
0
100
AcDbSymbolTable
 70
     1
  0
APPID
  5
12
330
9
100
AcDbSymbolTableRecord
100
AcDbRegAppTableRecord
  2
ACAD
 70
     0
  0
ENDTAB
  0
TABLE
  2
DIMSTYLE
  5
A
330
0
100
AcDbSymbolTable
 70
     1
100
AcDbDimStyleTable
  0
DIMSTYLE
105
27
330
A
100
AcDbSymbolTableRecord
100
AcDbDimStyleTableRecord
  2
ISO-25
 70
     0
 41
2.5
 42
0.625
 43
3.75
 44
1.25
 73
     0
 74
     0
 77
     1
 78
     8
140
2.5
141
2.5
143
0.0393700787
147
0.625
171
     3
172
     1
178
     0
271
     2
272
     2
274
     3
278
    44
283
     0
284
     8
340
11
  0
ENDTAB
  0
TABLE
  2
BLOCK_RECORD
  5
1
330
0
100
AcDbSymbolTable
 70
    10
  0
BLOCK_RECORD
  5
1F
330
1
100
AcDbSymbolTableRecord
100
AcDbBlockTableRecord
  2
*Model_Space
340
22
  0
BLOCK_RECORD
  5
1B
330
1
100
AcDbSymbolTableRecord
100
AcDbBlockTableRecord
  2
*Paper_Space
340
1E
  0
BLOCK_RECORD
  5
23
330
1
100
AcDbSymbolTableRecord
100
AcDbBlockTableRecord
  2
*Paper_Space0
340
26
  0
BLOCK_RECORD
  5
97
330
1
100
AcDbSymbolTableRecord
100
AcDbBlockTableRecord
  2
SW_CENTERMARKSYMBOL_0
340
0
102
{BLKREFS
331
A2
102
}
  0
BLOCK_RECORD
  5
A3
330
1
100
AcDbSymbolTableRecord
100
AcDbBlockTableRecord
  2
SW_CENTERMARKSYMBOL_1
340
0
102
{BLKREFS
331
AE
102
}
  0
BLOCK_RECORD
  5
AF
330
1
100
AcDbSymbolTableRecord
100
AcDbBlockTableRecord
  2
SW_CENTERMARKSYMBOL_2
340
0
102
{BLKREFS
331
BA
102
}
  0
BLOCK_RECORD
  5
BB
330
1
100
AcDbSymbolTableRecord
100
AcDbBlockTableRecord
  2
SW_CENTERMARKSYMBOL_3
340
0
102
{BLKREFS
331
C6
102
}
  0
BLOCK_RECORD
  5
C7
330
1
100
AcDbSymbolTableRecord
100
AcDbBlockTableRecord
  2
SW_CENTERMARKSYMBOL_4
340
0
102
{BLKREFS
331
D2
102
}
  0
BLOCK_RECORD
  5
D3
330
1
100
AcDbSymbolTableRecord
100
AcDbBlockTableRecord
  2
SW_CENTERMARKSYMBOL_5
340
0
102
{BLKREFS
331
DE
102
}
  0
BLOCK_RECORD
  5
DF
330
1
100
AcDbSymbolTableRecord
100
AcDbBlockTableRecord
  2
SW_CENTERMARKSYMBOL_6
340
0
102
{BLKREFS
331
EA
102
}
  0
BLOCK_RECORD
  5
EB
330
1
100
AcDbSymbolTableRecord
100
AcDbBlockTableRecord
  2
SW_CENTERMARKSYMBOL_7
340
0
102
{BLKREFS
331
F6
102
}
  0
BLOCK_RECORD
  5
F7
330
1
100
AcDbSymbolTableRecord
100
AcDbBlockTableRecord
  2
SW_CENTERMARKSYMBOL_8
340
0
102
{BLKREFS
331
102
102
}
  0
ENDTAB
  0
ENDSEC
  0
SECTION
  2
BLOCKS
  0
BLOCK
  5
20
330
1F
100
AcDbEntity
  8
0
100
AcDbBlockBegin
  2
*Model_Space
 70
     0
 10
0.0
 20
0.0
 30
0.0
  3
*Model_Space
  1

  0
ENDBLK
  5
21
330
1F
100
AcDbEntity
  8
0
100
AcDbBlockEnd
  0
BLOCK
  5
1C
330
1B
100
AcDbEntity
 67
     1
  8
0
100
AcDbBlockBegin
  2
*Paper_Space
 70
     0
 10
0.0
 20
0.0
 30
0.0
  3
*Paper_Space
  1

  0
ENDBLK
  5
1D
330
1B
100
AcDbEntity
 67
     1
  8
0
100
AcDbBlockEnd
  0
BLOCK
  5
24
330
23
100
AcDbEntity
  8
0
100
AcDbBlockBegin
  2
*Paper_Space0
 70
     0
 10
0.0
 20
0.0
 30
0.0
  3
*Paper_Space0
  1

  0
ENDBLK
  5
25
330
23
100
AcDbEntity
  8
0
100
AcDbBlockEnd
  0
BLOCK
  5
98
330
97
100
AcDbEntity
  8
0
100
AcDbBlockBegin
  2
SW_CENTERMARKSYMBOL_0
 70
     0
 10
0.0
 20
0.0
 30
0.0
  3
SW_CENTERMARKSYMBOL_0
  1

  0
LINE
  5
9A
330
97
100
AcDbEntity
  8
FORMAT
 62
     0
100
AcDbLine
 10
0.0
 20
0.0
 30
0.0
 11
0.0
 21
2.5
 31
0.0
  0
LINE
  5
9B
330
97
100
AcDbEntity
  8
FORMAT
 62
     0
100
AcDbLine
 10
0.0
 20
0.0
 30
0.0
 11
-2.5
 21
0.0
 31
0.0
  0
LINE
  5
9C
330
97
100
AcDbEntity
  8
FORMAT
 62
     0
100
AcDbLine
 10
0.0
 20
0.0
 30
0.0
 11
0.0
 21
-2.5
 31
0.0
  0
LINE
  5
9D
330
97
100
AcDbEntity
  8
FORMAT
 62
     0
100
AcDbLine
 10
0.0
 20
0.0
 30
0.0
 11
2.5
 21
0.0
 31
0.0
  0
LINE
  5
9E
330
97
100
AcDbEntity
  8
FORMAT
 62
     0
100
AcDbLine
 10
0.0
 20
5.0
 30
0.0
 11
0.0
 21
13.5
 31
0.0
  0
LINE
  5
9F
330
97
100
AcDbEntity
  8
FORMAT
 62
     0
100
AcDbLine
 10
-5.0
 20
0.0
 30
0.0
 11
-13.5
 21
0.0
 31
0.0
  0
LINE
  5
A0
330
97
100
AcDbEntity
  8
FORMAT
 62
     0
100
AcDbLine
 10
0.0
 20
-5.0
 30
0.0
 11
0.0
 21
-13.5
 31
0.0
  0
LINE
  5
A1
330
97
100
AcDbEntity
  8
FORMAT
 62
     0
100
AcDbLine
 10
5.0
 20
0.0
 30
0.0
 11
13.5
 21
0.0
 31
0.0
  0
ENDBLK
  5
99
330
97
100
AcDbEntity
  8
0
100
AcDbBlockEnd
  0
BLOCK
  5
A4
330
A3
100
AcDbEntity
  8
0
100
AcDbBlockBegin
  2
SW_CENTERMARKSYMBOL_1
 70
     0
 10
0.0
 20
0.0
 30
0.0
  3
SW_CENTERMARKSYMBOL_1
  1

  0
LINE
  5
A6
330
A3
100
AcDbEntity
  8
FORMAT
 62
     0
100
AcDbLine
 10
0.0
 20
0.0
 30
0.0
 11
0.0
 21
2.5
 31
0.0
  0
LINE
  5
A7
330
A3
100
AcDbEntity
  8
FORMAT
 62
     0
100
AcDbLine
 10
0.0
 20
0.0
 30
0.0
 11
-2.5
 21
0.0
 31
0.0
  0
LINE
  5
A8
330
A3
100
AcDbEntity
  8
FORMAT
 62
     0
100
AcDbLine
 10
0.0
 20
0.0
 30
0.0
 11
0.0
 21
-2.5
 31
0.0
  0
LINE
  5
A9
330
A3
100
AcDbEntity
  8
FORMAT
 62
     0
100
AcDbLine
 10
0.0
 20
0.0
 30
0.0
 11
2.5
 21
0.0
 31
0.0
  0
LINE
  5
AA
330
A3
100
AcDbEntity
  8
FORMAT
 62
     0
100
AcDbLine
 10
0.0
 20
5.0
 30
0.0
 11
0.0
 21
13.5
 31
0.0
  0
LINE
  5
AB
330
A3
100
AcDbEntity
  8
FORMAT
 62
     0
100
AcDbLine
 10
-5.0
 20
0.0
 30
0.0
 11
-13.5
 21
0.0
 31
0.0
  0
LINE
  5
AC
330
A3
100
AcDbEntity
  8
FORMAT
 62
     0
100
AcDbLine
 10
0.0
 20
-5.0
 30
0.0
 11
0.0
 21
-13.5
 31
0.0
  0
LINE
  5
AD
330
A3
100
AcDbEntity
  8
FORMAT
 62
     0
100
AcDbLine
 10
5.0
 20
0.0
 30
0.0
 11
13.5
 21
0.0
 31
0.0
  0
ENDBLK
  5
A5
330
A3
100
AcDbEntity
  8
0
100
AcDbBlockEnd
  0
BLOCK
  5
B0
330
AF
100
AcDbEntity
  8
0
100
AcDbBlockBegin
  2
SW_CENTERMARKSYMBOL_2
 70
     0
 10
0.0
 20
0.0
 30
0.0
  3
SW_CENTERMARKSYMBOL_2
  1

  0
LINE
  5
B2
330
AF
100
AcDbEntity
  8
FORMAT
 62
     0
100
AcDbLine
 10
0.0
 20
0.0
 30
0.0
 11
0.0
 21
2.5
 31
0.0
  0
LINE
  5
B3
330
AF
100
AcDbEntity
  8
FORMAT
 62
     0
100
AcDbLine
 10
0.0
 20
0.0
 30
0.0
 11
-2.5
 21
0.0
 31
0.0
  0
LINE
  5
B4
330
AF
100
AcDbEntity
  8
FORMAT
 62
     0
100
AcDbLine
 10
0.0
 20
0.0
 30
0.0
 11
0.0
 21
-2.5
 31
0.0
  0
LINE
  5
B5
330
AF
100
AcDbEntity
  8
FORMAT
 62
     0
100
AcDbLine
 10
0.0
 20
0.0
 30
0.0
 11
2.5
 21
0.0
 31
0.0
  0
LINE
  5
B6
330
AF
100
AcDbEntity
  8
FORMAT
 62
     0
100
AcDbLine
 10
0.0
 20
5.0
 30
0.0
 11
0.0
 21
13.5
 31
0.0
  0
LINE
  5
B7
330
AF
100
AcDbEntity
  8
FORMAT
 62
     0
100
AcDbLine
 10
-5.0
 20
0.0
 30
0.0
 11
-13.5
 21
0.0
 31
0.0
  0
LINE
  5
B8
330
AF
100
AcDbEntity
  8
FORMAT
 62
     0
100
AcDbLine
 10
0.0
 20
-5.0
 30
0.0
 11
0.0
 21
-13.5
 31
0.0
  0
LINE
  5
B9
330
AF
100
AcDbEntity
  8
FORMAT
 62
     0
100
AcDbLine
 10
5.0
 20
0.0
 30
0.0
 11
13.5
 21
0.0
 31
0.0
  0
ENDBLK
  5
B1
330
AF
100
AcDbEntity
  8
0
100
AcDbBlockEnd
  0
BLOCK
  5
BC
330
BB
100
AcDbEntity
  8
0
100
AcDbBlockBegin
  2
SW_CENTERMARKSYMBOL_3
 70
     0
 10
0.0
 20
0.0
 30
0.0
  3
SW_CENTERMARKSYMBOL_3
  1

  0
LINE
  5
BE
330
BB
100
AcDbEntity
  8
FORMAT
 62
     0
100
AcDbLine
 10
0.0
 20
0.0
 30
0.0
 11
0.0
 21
2.5
 31
0.0
  0
LINE
  5
BF
330
BB
100
AcDbEntity
  8
FORMAT
 62
     0
100
AcDbLine
 10
0.0
 20
0.0
 30
0.0
 11
-2.5
 21
0.0
 31
0.0
  0
LINE
  5
C0
330
BB
100
AcDbEntity
  8
FORMAT
 62
     0
100
AcDbLine
 10
0.0
 20
0.0
 30
0.0
 11
0.0
 21
-2.5
 31
0.0
  0
LINE
  5
C1
330
BB
100
AcDbEntity
  8
FORMAT
 62
     0
100
AcDbLine
 10
0.0
 20
0.0
 30
0.0
 11
2.5
 21
0.0
 31
0.0
  0
LINE
  5
C2
330
BB
100
AcDbEntity
  8
FORMAT
 62
     0
100
AcDbLine
 10
0.0
 20
5.0
 30
0.0
 11
0.0
 21
13.5
 31
0.0
  0
LINE
  5
C3
330
BB
100
AcDbEntity
  8
FORMAT
 62
     0
100
AcDbLine
 10
-5.0
 20
0.0
 30
0.0
 11
-13.5
 21
0.0
 31
0.0
  0
LINE
  5
C4
330
BB
100
AcDbEntity
  8
FORMAT
 62
     0
100
AcDbLine
 10
0.0
 20
-5.0
 30
0.0
 11
0.0
 21
-13.5
 31
0.0
  0
LINE
  5
C5
330
BB
100
AcDbEntity
  8
FORMAT
 62
     0
100
AcDbLine
 10
5.0
 20
0.0
 30
0.0
 11
13.5
 21
0.0
 31
0.0
  0
ENDBLK
  5
BD
330
BB
100
AcDbEntity
  8
0
100
AcDbBlockEnd
  0
BLOCK
  5
C8
330
C7
100
AcDbEntity
  8
0
100
AcDbBlockBegin
  2
SW_CENTERMARKSYMBOL_4
 70
     0
 10
0.0
 20
0.0
 30
0.0
  3
SW_CENTERMARKSYMBOL_4
  1

  0
LINE
  5
CA
330
C7
100
AcDbEntity
  8
FORMAT
 62
     0
100
AcDbLine
 10
0.0
 20
0.0
 30
0.0
 11
0.0
 21
2.5
 31
0.0
  0
LINE
  5
CB
330
C7
100
AcDbEntity
  8
FORMAT
 62
     0
100
AcDbLine
 10
0.0
 20
0.0
 30
0.0
 11
-2.5
 21
0.0
 31
0.0
  0
LINE
  5
CC
330
C7
100
AcDbEntity
  8
FORMAT
 62
     0
100
AcDbLine
 10
0.0
 20
0.0
 30
0.0
 11
0.0
 21
-2.5
 31
0.0
  0
LINE
  5
CD
330
C7
100
AcDbEntity
  8
FORMAT
 62
     0
100
AcDbLine
 10
0.0
 20
0.0
 30
0.0
 11
2.5
 21
0.0
 31
0.0
  0
LINE
  5
CE
330
C7
100
AcDbEntity
  8
FORMAT
 62
     0
100
AcDbLine
 10
0.0
 20
5.0
 30
0.0
 11
0.0
 21
14.5
 31
0.0
  0
LINE
  5
CF
330
C7
100
AcDbEntity
  8
FORMAT
 62
     0
100
AcDbLine
 10
-5.0
 20
0.0
 30
0.0
 11
-14.5
 21
0.0
 31
0.0
  0
LINE
  5
D0
330
C7
100
AcDbEntity
  8
FORMAT
 62
     0
100
AcDbLine
 10
0.0
 20
-5.0
 30
0.0
 11
0.0
 21
-14.5
 31
0.0
  0
LINE
  5
D1
330
C7
100
AcDbEntity
  8
FORMAT
 62
     0
100
AcDbLine
 10
5.0
 20
0.0
 30
0.0
 11
14.5
 21
0.0
 31
0.0
  0
ENDBLK
  5
C9
330
C7
100
AcDbEntity
  8
0
100
AcDbBlockEnd
  0
BLOCK
  5
D4
330
D3
100
AcDbEntity
  8
0
100
AcDbBlockBegin
  2
SW_CENTERMARKSYMBOL_5
 70
     0
 10
0.0
 20
0.0
 30
0.0
  3
SW_CENTERMARKSYMBOL_5
  1

  0
LINE
  5
D6
330
D3
100
AcDbEntity
  8
FORMAT
 62
     0
100
AcDbLine
 10
0.0
 20
0.0
 30
0.0
 11
0.0
 21
2.5
 31
0.0
  0
LINE
  5
D7
330
D3
100
AcDbEntity
  8
FORMAT
 62
     0
100
AcDbLine
 10
0.0
 20
0.0
 30
0.0
 11
-2.5
 21
0.0
 31
0.0
  0
LINE
  5
D8
330
D3
100
AcDbEntity
  8
FORMAT
 62
     0
100
AcDbLine
 10
0.0
 20
0.0
 30
0.0
 11
0.0
 21
-2.5
 31
0.0
  0
LINE
  5
D9
330
D3
100
AcDbEntity
  8
FORMAT
 62
     0
100
AcDbLine
 10
0.0
 20
0.0
 30
0.0
 11
2.5
 21
0.0
 31
0.0
  0
LINE
  5
DA
330
D3
100
AcDbEntity
  8
FORMAT
 62
     0
100
AcDbLine
 10
0.0
 20
5.0
 30
0.0
 11
0.0
 21
14.5
 31
0.0
  0
LINE
  5
DB
330
D3
100
AcDbEntity
  8
FORMAT
 62
     0
100
AcDbLine
 10
-5.0
 20
0.0
 30
0.0
 11
-14.5
 21
0.0
 31
0.0
  0
LINE
  5
DC
330
D3
100
AcDbEntity
  8
FORMAT
 62
     0
100
AcDbLine
 10
0.0
 20
-5.0
 30
0.0
 11
0.0
 21
-14.5
 31
0.0
  0
LINE
  5
DD
330
D3
100
AcDbEntity
  8
FORMAT
 62
     0
100
AcDbLine
 10
5.0
 20
0.0
 30
0.0
 11
14.5
 21
0.0
 31
0.0
  0
ENDBLK
  5
D5
330
D3
100
AcDbEntity
  8
0
100
AcDbBlockEnd
  0
BLOCK
  5
E0
330
DF
100
AcDbEntity
  8
0
100
AcDbBlockBegin
  2
SW_CENTERMARKSYMBOL_6
 70
     0
 10
0.0
 20
0.0
 30
0.0
  3
SW_CENTERMARKSYMBOL_6
  1

  0
LINE
  5
E2
330
DF
100
AcDbEntity
  8
FORMAT
 62
     0
100
AcDbLine
 10
0.0
 20
0.0
 30
0.0
 11
0.0
 21
2.5
 31
0.0
  0
LINE
  5
E3
330
DF
100
AcDbEntity
  8
FORMAT
 62
     0
100
AcDbLine
 10
0.0
 20
0.0
 30
0.0
 11
-2.5
 21
0.0
 31
0.0
  0
LINE
  5
E4
330
DF
100
AcDbEntity
  8
FORMAT
 62
     0
100
AcDbLine
 10
0.0
 20
0.0
 30
0.0
 11
0.0
 21
-2.5
 31
0.0
  0
LINE
  5
E5
330
DF
100
AcDbEntity
  8
FORMAT
 62
     0
100
AcDbLine
 10
0.0
 20
0.0
 30
0.0
 11
2.5
 21
0.0
 31
0.0
  0
LINE
  5
E6
330
DF
100
AcDbEntity
  8
FORMAT
 62
     0
100
AcDbLine
 10
0.0
 20
5.0
 30
0.0
 11
0.0
 21
14.5
 31
0.0
  0
LINE
  5
E7
330
DF
100
AcDbEntity
  8
FORMAT
 62
     0
100
AcDbLine
 10
-5.0
 20
0.0
 30
0.0
 11
-14.5
 21
0.0
 31
0.0
  0
LINE
  5
E8
330
DF
100
AcDbEntity
  8
FORMAT
 62
     0
100
AcDbLine
 10
0.0
 20
-5.0
 30
0.0
 11
0.0
 21
-14.5
 31
0.0
  0
LINE
  5
E9
330
DF
100
AcDbEntity
  8
FORMAT
 62
     0
100
AcDbLine
 10
5.0
 20
0.0
 30
0.0
 11
14.5
 21
0.0
 31
0.0
  0
ENDBLK
  5
E1
330
DF
100
AcDbEntity
  8
0
100
AcDbBlockEnd
  0
BLOCK
  5
EC
330
EB
100
AcDbEntity
  8
0
100
AcDbBlockBegin
  2
SW_CENTERMARKSYMBOL_7
 70
     0
 10
0.0
 20
0.0
 30
0.0
  3
SW_CENTERMARKSYMBOL_7
  1

  0
LINE
  5
EE
330
EB
100
AcDbEntity
  8
FORMAT
 62
     0
100
AcDbLine
 10
0.0
 20
0.0
 30
0.0
 11
0.0
 21
2.5
 31
0.0
  0
LINE
  5
EF
330
EB
100
AcDbEntity
  8
FORMAT
 62
     0
100
AcDbLine
 10
0.0
 20
0.0
 30
0.0
 11
-2.5
 21
0.0
 31
0.0
  0
LINE
  5
F0
330
EB
100
AcDbEntity
  8
FORMAT
 62
     0
100
AcDbLine
 10
0.0
 20
0.0
 30
0.0
 11
0.0
 21
-2.5
 31
0.0
  0
LINE
  5
F1
330
EB
100
AcDbEntity
  8
FORMAT
 62
     0
100
AcDbLine
 10
0.0
 20
0.0
 30
0.0
 11
2.5
 21
0.0
 31
0.0
  0
LINE
  5
F2
330
EB
100
AcDbEntity
  8
FORMAT
 62
     0
100
AcDbLine
 10
0.0
 20
5.0
 30
0.0
 11
0.0
 21
172.5
 31
0.0
  0
LINE
  5
F3
330
EB
100
AcDbEntity
  8
FORMAT
 62
     0
100
AcDbLine
 10
-5.0
 20
0.0
 30
0.0
 11
-172.5
 21
0.0
 31
0.0
  0
LINE
  5
F4
330
EB
100
AcDbEntity
  8
FORMAT
 62
     0
100
AcDbLine
 10
0.0
 20
-5.0
 30
0.0
 11
0.0
 21
-172.5
 31
0.0
  0
LINE
  5
F5
330
EB
100
AcDbEntity
  8
FORMAT
 62
     0
100
AcDbLine
 10
5.0
 20
0.0
 30
0.0
 11
172.5
 21
0.0
 31
0.0
  0
ENDBLK
  5
ED
330
EB
100
AcDbEntity
  8
0
100
AcDbBlockEnd
  0
BLOCK
  5
F8
330
F7
100
AcDbEntity
  8
0
100
AcDbBlockBegin
  2
SW_CENTERMARKSYMBOL_8
 70
     0
 10
0.0
 20
0.0
 30
0.0
  3
SW_CENTERMARKSYMBOL_8
  1

  0
LINE
  5
FA
330
F7
100
AcDbEntity
  8
FORMAT
 62
     0
100
AcDbLine
 10
0.0
 20
0.0
 30
0.0
 11
0.0
 21
2.5
 31
0.0
  0
LINE
  5
FB
330
F7
100
AcDbEntity
  8
FORMAT
 62
     0
100
AcDbLine
 10
0.0
 20
0.0
 30
0.0
 11
-2.5
 21
0.0
 31
0.0
  0
LINE
  5
FC
330
F7
100
AcDbEntity
  8
FORMAT
 62
     0
100
AcDbLine
 10
0.0
 20
0.0
 30
0.0
 11
0.0
 21
-2.5
 31
0.0
  0
LINE
  5
FD
330
F7
100
AcDbEntity
  8
FORMAT
 62
     0
100
AcDbLine
 10
0.0
 20
0.0
 30
0.0
 11
2.5
 21
0.0
 31
0.0
  0
LINE
  5
FE
330
F7
100
AcDbEntity
  8
FORMAT
 62
     0
100
AcDbLine
 10
0.0
 20
5.0
 30
0.0
 11
0.0
 21
13.5
 31
0.0
  0
LINE
  5
FF
330
F7
100
AcDbEntity
  8
FORMAT
 62
     0
100
AcDbLine
 10
-5.0
 20
0.0
 30
0.0
 11
-13.5
 21
0.0
 31
0.0
  0
LINE
  5
100
330
F7
100
AcDbEntity
  8
FORMAT
 62
     0
100
AcDbLine
 10
0.0
 20
-5.0
 30
0.0
 11
0.0
 21
-13.5
 31
0.0
  0
LINE
  5
101
330
F7
100
AcDbEntity
  8
FORMAT
 62
     0
100
AcDbLine
 10
5.0
 20
0.0
 30
0.0
 11
13.5
 21
0.0
 31
0.0
  0
ENDBLK
  5
F9
330
F7
100
AcDbEntity
  8
0
100
AcDbBlockEnd
  0
ENDSEC
  0
SECTION
  2
ENTITIES
  0
CIRCLE
  5
83
330
1F
100
AcDbEntity
  8
0
  6
Continuous
 62
     7
370
    25
100
AcDbCircle
 10
-12.3894061796
 20
115.6909958732
 30
0.0
 40
12.00000000000001
  0
CIRCLE
  5
84
330
1F
100
AcDbEntity
  8
0
  6
Continuous
 62
     7
370
    25
100
AcDbCircle
 10
239.4088440454
 20
11.3927456482
 30
0.0
 40
12.0
  0
CIRCLE
  5
85
330
1F
100
AcDbEntity
  8
0
  6
Continuous
 62
     7
370
    25
100
AcDbCircle
 10
239.4088440454
 20
219.9892460982
 30
0.0
 40
11.99999999999997
  0
CIRCLE
  5
86
330
1F
100
AcDbEntity
  8
0
  6
Continuous
 62
     7
370
    25
100
AcDbCircle
 10
135.1105938204
 20
263.1909958732
 30
0.0
 40
12.0
  0
CIRCLE
  5
87
330
1F
100
AcDbEntity
  8
0
  6
Continuous
 62
     7
370
    25
100
AcDbCircle
 10
135.1105938204
 20
115.6909958732
 30
0.0
 40
169.0
  0
CIRCLE
  5
88
330
1F
100
AcDbEntity
  8
0
  6
Continuous
 62
     7
370
    25
100
AcDbCircle
 10
135.1105938204
 20
115.6909958732
 30
0.0
 40
118.5
  0
CIRCLE
  5
89
330
1F
100
AcDbEntity
  8
0
  6
Continuous
 62
     7
370
    25
100
AcDbCircle
 10
135.1105938204
 20
-31.8090041268
 30
0.0
 40
12.0
  0
CIRCLE
  5
8A
330
1F
100
AcDbEntity
  8
0
  6
Continuous
 62
     7
370
    25
100
AcDbCircle
 10
282.6105938204
 20
115.6909958732
 30
0.0
 40
12.0
  0
CIRCLE
  5
8B
330
1F
100
AcDbEntity
  8
0
  6
Continuous
 62
     7
370
    25
100
AcDbCircle
 10
30.8123435954
 20
11.3927456482
 30
0.0
 40
11.99999999999998
  0
CIRCLE
  5
8C
330
1F
100
AcDbEntity
  8
0
  6
Continuous
 62
     7
370
    25
100
AcDbCircle
 10
30.8123435954
 20
219.9892460982
 30
0.0
 40
11.99999999999998
  0
CIRCLE
  5
8D
330
1F
100
AcDbEntity
  8
0
  6
Continuous
 62
     7
370
    25
100
AcDbCircle
 10
135.1105938204
 20
-31.8090041268
 30
0.0
 40
11.0
  0
CIRCLE
  5
8E
330
1F
100
AcDbEntity
  8
0
  6
Continuous
 62
     7
370
    25
100
AcDbCircle
 10
135.1105938204
 20
115.6909958732
 30
0.0
 40
117.5
  0
CIRCLE
  5
8F
330
1F
100
AcDbEntity
  8
0
  6
Continuous
 62
     7
370
    25
100
AcDbCircle
 10
135.1105938204
 20
115.6909958732
 30
0.0
 40
170.0
  0
CIRCLE
  5
90
330
1F
100
AcDbEntity
  8
0
  6
Continuous
 62
     7
370
    25
100
AcDbCircle
 10
135.1105938204
 20
263.1909958732
 30
0.0
 40
11.0
  0
CIRCLE
  5
91
330
1F
100
AcDbEntity
  8
0
  6
Continuous
 62
     7
370
    25
100
AcDbCircle
 10
239.4088440454
 20
219.9892460982
 30
0.0
 40
11.00000000000003
  0
CIRCLE
  5
92
330
1F
100
AcDbEntity
  8
0
  6
Continuous
 62
     7
370
    25
100
AcDbCircle
 10
30.8123435954
 20
219.9892460982
 30
0.0
 40
11.0
  0
CIRCLE
  5
93
330
1F
100
AcDbEntity
  8
0
  6
Continuous
 62
     7
370
    25
100
AcDbCircle
 10
30.8123435954
 20
11.3927456482
 30
0.0
 40
11.0
  0
CIRCLE
  5
94
330
1F
100
AcDbEntity
  8
0
  6
Continuous
 62
     7
370
    25
100
AcDbCircle
 10
282.6105938204
 20
115.6909958732
 30
0.0
 40
11.0
  0
CIRCLE
  5
95
330
1F
100
AcDbEntity
  8
0
  6
Continuous
 62
     7
370
    25
100
AcDbCircle
 10
-12.3894061796
 20
115.6909958732
 30
0.0
 40
11.00000000000001
  0
CIRCLE
  5
96
330
1F
100
AcDbEntity
  8
0
  6
Continuous
 62
     7
370
    25
100
AcDbCircle
 10
239.4088440454
 20
11.3927456482
 30
0.0
 40
11.0
  0
INSERT
  5
A2
330
1F
100
AcDbEntity
  8
FORMAT
 62
     7
100
AcDbBlockReference
  2
SW_CENTERMARKSYMBOL_0
 10
135.1105938204
 20
263.1909958732
 30
0.0
  0
INSERT
  5
AE
330
1F
100
AcDbEntity
  8
FORMAT
 62
     7
100
AcDbBlockReference
  2
SW_CENTERMARKSYMBOL_1
 10
239.4088440454
 20
219.9892460982
 30
0.0
  0
INSERT
  5
BA
330
1F
100
AcDbEntity
  8
FORMAT
 62
     7
100
AcDbBlockReference
  2
SW_CENTERMARKSYMBOL_2
 10
282.6105938204
 20
115.6909958732
 30
0.0
  0
INSERT
  5
C6
330
1F
100
AcDbEntity
  8
FORMAT
 62
     7
100
AcDbBlockReference
  2
SW_CENTERMARKSYMBOL_3
 10
239.4088440454
 20
11.3927456482
 30
0.0
  0
INSERT
  5
D2
330
1F
100
AcDbEntity
  8
FORMAT
 62
     7
100
AcDbBlockReference
  2
SW_CENTERMARKSYMBOL_4
 10
30.8123435954
 20
219.9892460982
 30
0.0
  0
INSERT
  5
DE
330
1F
100
AcDbEntity
  8
FORMAT
 62
     7
100
AcDbBlockReference
  2
SW_CENTERMARKSYMBOL_5
 10
30.8123435954
 20
11.3927456482
 30
0.0
  0
INSERT
  5
EA
330
1F
100
AcDbEntity
  8
FORMAT
 62
     7
100
AcDbBlockReference
  2
SW_CENTERMARKSYMBOL_6
 10
135.1105938204
 20
-31.8090041268
 30
0.0
  0
INSERT
  5
F6
330
1F
100
AcDbEntity
  8
FORMAT
 62
     7
100
AcDbBlockReference
  2
SW_CENTERMARKSYMBOL_7
 10
135.1105938204
 20
115.6909958732
 30
0.0
  0
INSERT
  5
102
330
1F
100
AcDbEntity
  8
FORMAT
 62
     7
100
AcDbBlockReference
  2
SW_CENTERMARKSYMBOL_8
 10
-12.3894061796
 20
115.6909958732
 30
0.0
  0
LINE
  5
103
330
1F
100
AcDbEntity
  8
0
  6
Continuous
 62
     7
370
    25
100
AcDbLine
 10
-132.9631494683
 20
285.6909958732
 30
0.0
 11
-157.9631494683
 21
285.6909958732
 31
0.0
  0
LINE
  5
104
330
1F
100
AcDbEntity
  8
0
  6
Continuous
 62
     7
370
    25
100
AcDbLine
 10
-157.9631494683
 20
-54.3090041268
 30
0.0
 11
-132.9631494683
 21
-54.3090041268
 31
0.0
  0
ARC
  5
105
330
1F
100
AcDbEntity
  8
0
  6
Continuous
 62
     7
370
    25
100
AcDbCircle
 10
-132.9631494683
 20
-53.3090041268
 30
0.0
 40
1.0
100
AcDbArc
 50
270.0
 51
0.0
  0
ARC
  5
106
330
1F
100
AcDbEntity
  8
0
  6
Continuous
 62
     7
370
    25
100
AcDbCircle
 10
-132.9631494683
 20
284.6909958732
 30
0.0
 40
1.0
100
AcDbArc
 50
0.0
 51
90.0
  0
ARC
  5
107
330
1F
100
AcDbEntity
  8
0
  6
Continuous
 62
     7
370
    25
100
AcDbCircle
 10
-157.9631494683
 20
-53.3090041268
 30
0.0
 40
1.0
100
AcDbArc
 50
180.0
 51
270.0
  0
ARC
  5
108
330
1F
100
AcDbEntity
  8
0
  6
Continuous
 62
     7
370
    25
100
AcDbCircle
 10
-157.9631494683
 20
284.6909958732
 30
0.0
 40
1.0
100
AcDbArc
 50
90.0
 51
180.0
  0
LINE
  5
109
330
1F
100
AcDbEntity
  8
0
  6
Continuous
 62
     7
370
    25
100
AcDbLine
 10
-131.9631494683
 20
115.6909958732
 30
0.0
 11
-131.9631494683
 21
-53.3090041268
 31
0.0
  0
LINE
  5
10A
330
1F
100
AcDbEntity
  8
0
  6
Continuous
 62
     7
370
    25
100
AcDbLine
 10
-131.9631494683
 20
284.6909958732
 30
0.0
 11
-131.9631494683
 21
115.6909958732
 31
0.0
  0
LINE
  5
10B
330
1F
100
AcDbEntity
  8
0
  6
Continuous
 62
     7
370
    25
100
AcDbLine
 10
-158.9631494683
 20
115.6909958732
 30
0.0
 11
-158.9631494683
 21
284.6909958732
 31
0.0
  0
LINE
  5
10C
330
1F
100
AcDbEntity
  8
0
  6
Continuous
 62
     7
370
    25
100
AcDbLine
 10
-158.9631494683
 20
-53.3090041268
 30
0.0
 11
-158.9631494683
 21
115.6909958732
 31
0.0
  0
LINE
  5
10D
330
1F
100
AcDbEntity
  8
0
  6
Continuous
 62
     1
370
    25
100
AcDbLine
 10
-157.9631494683
 20
115.6909958732
 30
0.0
 11
-157.9631494683
 21
-54.3090041268
 31
0.0
  0
LINE
  5
10E
330
1F
100
AcDbEntity
  8
0
  6
Continuous
 62
     1
370
    25
100
AcDbLine
 10
-157.9631494683
 20
285.6909958732
 30
0.0
 11
-157.9631494683
 21
115.6909958732
 31
0.0
  0
LINE
  5
10F
330
1F
100
AcDbEntity
  8
0
  6
Continuous
 62
     1
370
    25
100
AcDbLine
 10
-132.9631494683
 20
115.6909958732
 30
0.0
 11
-132.9631494683
 21
285.6909958732
 31
0.0
  0
LINE
  5
110
330
1F
100
AcDbEntity
  8
0
  6
Continuous
 62
     1
370
    25
100
AcDbLine
 10
-132.9631494683
 20
-54.3090041268
 30
0.0
 11
-132.9631494683
 21
115.6909958732
 31
0.0
  0
LINE
  5
111
330
1F
100
AcDbEntity
  8
0
  6
Continuous
 62
     7
370
    25
100
AcDbLine
 10
474.5780429503
 20
-54.3090041268
 30
0.0
 11
499.5780429503
 21
-54.3090041268
 31
0.0
  0
LINE
  5
112
330
1F
100
AcDbEntity
  8
0
  6
Continuous
 62
     7
370
    25
100
AcDbLine
 10
499.5780429503
 20
285.6909958732
 30
0.0
 11
474.5780429503
 21
285.6909958732
 31
0.0
  0
ARC
  5
113
330
1F
100
AcDbEntity
  8
0
  6
Continuous
 62
     7
370
    25
100
AcDbCircle
 10
474.5780429503
 20
284.6909958732
 30
0.0
 40
1.0
100
AcDbArc
 50
90.0
 51
180.0
  0
ARC
  5
114
330
1F
100
AcDbEntity
  8
0
  6
Continuous
 62
     7
370
    25
100
AcDbCircle
 10
474.5780429503
 20
-53.3090041268
 30
0.0
 40
1.0
100
AcDbArc
 50
180.0
 51
270.0
  0
ARC
  5
115
330
1F
100
AcDbEntity
  8
0
  6
Continuous
 62
     7
370
    25
100
AcDbCircle
 10
499.5780429503
 20
284.6909958732
 30
0.0
 40
1.0
100
AcDbArc
 50
0.0
 51
90.0
  0
ARC
  5
116
330
1F
100
AcDbEntity
  8
0
  6
Continuous
 62
     7
370
    25
100
AcDbCircle
 10
499.5780429503
 20
-53.3090041268
 30
0.0
 40
1.0
100
AcDbArc
 50
270.0
 51
0.0
  0
LINE
  5
117
330
1F
100
AcDbEntity
  8
0
  6
Continuous
 62
     7
370
    25
100
AcDbLine
 10
473.5780429503
 20
-53.3090041268
 30
0.0
 11
473.5780429503
 21
284.6909958732
 31
0.0
  0
LINE
  5
118
330
1F
100
AcDbEntity
  8
0
  6
Continuous
 62
     7
370
    25
100
AcDbLine
 10
500.5780429503
 20
284.6909958732
 30
0.0
 11
500.5780429503
 21
-53.3090041268
 31
0.0
  0
LINE
  5
119
330
1F
100
AcDbEntity
  8
0
  6
Continuous
 62
     1
370
    25
100
AcDbLine
 10
499.5780429503
 20
-54.3090041268
 30
0.0
 11
499.5780429503
 21
285.6909958732
 31
0.0
  0
LINE
  5
11A
330
1F
100
AcDbEntity
  8
0
  6
Continuous
 62
     1
370
    25
100
AcDbLine
 10
474.5780429503
 20
285.6909958732
 30
0.0
 11
474.5780429503
 21
-54.3090041268
 31
0.0
  0
LINE
  5
11B
330
1F
100
AcDbEntity
  8
0
  6
Continuous
 62
     7
370
    25
100
AcDbLine
 10
305.1105938204
 20
406.3084083794
 30
0.0
 11
305.1105938204
 21
431.3084083794
 31
0.0
  0
LINE
  5
11C
330
1F
100
AcDbEntity
  8
0
  6
Continuous
 62
     7
370
    25
100
AcDbLine
 10
-34.8894061796
 20
431.3084083794
 30
0.0
 11
-34.8894061796
 21
406.3084083794
 31
0.0
  0
ARC
  5
11D
330
1F
100
AcDbEntity
  8
0
  6
Continuous
 62
     7
370
    25
100
AcDbCircle
 10
-33.8894061796
 20
406.3084083794
 30
0.0
 40
1.000000000000007
100
AcDbArc
 50
180.0
 51
270.0
  0
ARC
  5
11E
330
1F
100
AcDbEntity
  8
0
  6
Continuous
 62
     7
370
    25
100
AcDbCircle
 10
304.1105938204
 20
406.3084083794
 30
0.0
 40
1.0
100
AcDbArc
 50
270.0
 51
0.0
  0
ARC
  5
11F
330
1F
100
AcDbEntity
  8
0
  6
Continuous
 62
     7
370
    25
100
AcDbCircle
 10
-33.8894061796
 20
431.3084083794
 30
0.0
 40
1.000000000000007
100
AcDbArc
 50
90.0
 51
180.0
  0
ARC
  5
120
330
1F
100
AcDbEntity
  8
0
  6
Continuous
 62
     7
370
    25
100
AcDbCircle
 10
304.1105938204
 20
431.3084083794
 30
0.0
 40
1.0
100
AcDbArc
 50
0.0
 51
90.0
  0
LINE
  5
121
330
1F
100
AcDbEntity
  8
0
  6
Continuous
 62
     7
370
    25
100
AcDbLine
 10
304.1105938204
 20
405.3084083794
 30
0.0
 11
-33.8894061796
 21
405.3084083794
 31
0.0
  0
LINE
  5
122
330
1F
100
AcDbEntity
  8
0
  6
Continuous
 62
     7
370
    25
100
AcDbLine
 10
-33.8894061788
 20
432.3084083794
 30
0.0
 11
304.1105938204
 21
432.3084083794
 31
0.0
  0
LINE
  5
123
330
1F
100
AcDbEntity
  8
0
  6
Continuous
 62
     1
370
    25
100
AcDbLine
 10
305.1105938204
 20
431.3084083794
 30
0.0
 11
-34.8894061796
 21
431.3084083794
 31
0.0
  0
LINE
  5
124
330
1F
100
AcDbEntity
  8
0
  6
Continuous
 62
     1
370
    25
100
AcDbLine
 10
-34.8894061796
 20
406.3084083794
 30
0.0
 11
305.1105938204
 21
406.3084083794
 31
0.0
  0
LINE
  5
125
330
1F
100
AcDbEntity
  8
0
  6
Continuous
 62
     7
370
    25
100
AcDbLine
 10
-34.8894061796
 20
-260.0276087826
 30
0.0
 11
-34.8894061796
 21
-285.0276087826
 31
0.0
  0
LINE
  5
126
330
1F
100
AcDbEntity
  8
0
  6
Continuous
 62
     7
370
    25
100
AcDbLine
 10
305.1105938204
 20
-285.0276087826
 30
0.0
 11
305.1105938204
 21
-260.0276087826
 31
0.0
  0
ARC
  5
127
330
1F
100
AcDbEntity
  8
0
  6
Continuous
 62
     7
370
    25
100
AcDbCircle
 10
304.1105938204
 20
-260.0276087826
 30
0.0
 40
1.0
100
AcDbArc
 50
0.0
 51
90.0
  0
ARC
  5
128
330
1F
100
AcDbEntity
  8
0
  6
Continuous
 62
     7
370
    25
100
AcDbCircle
 10
-33.8894061796
 20
-260.0276087826
 30
0.0
 40
1.000000000000007
100
AcDbArc
 50
90.0
 51
180.0
  0
ARC
  5
129
330
1F
100
AcDbEntity
  8
0
  6
Continuous
 62
     7
370
    25
100
AcDbCircle
 10
304.1105938204
 20
-285.0276087826
 30
0.0
 40
1.0
100
AcDbArc
 50
270.0
 51
0.0
  0
ARC
  5
12A
330
1F
100
AcDbEntity
  8
0
  6
Continuous
 62
     7
370
    25
100
AcDbCircle
 10
-33.8894061796
 20
-285.0276087826
 30
0.0
 40
1.000000000000007
100
AcDbArc
 50
180.0
 51
270.0
  0
LINE
  5
12B
330
1F
100
AcDbEntity
  8
0
  6
Continuous
 62
     7
370
    25
100
AcDbLine
 10
-33.8894061788
 20
-259.0276087826
 30
0.0
 11
304.1105938204
 21
-259.0276087826
 31
0.0
  0
LINE
  5
12C
330
1F
100
AcDbEntity
  8
0
  6
Continuous
 62
     7
370
    25
100
AcDbLine
 10
304.1105938204
 20
-286.0276087826
 30
0.0
 11
-33.8894061796
 21
-286.0276087826
 31
0.0
  0
LINE
  5
12D
330
1F
100
AcDbEntity
  8
0
  6
Continuous
 62
     1
370
    25
100
AcDbLine
 10
-34.8894061796
 20
-285.0276087826
 30
0.0
 11
305.1105938204
 21
-285.0276087826
 31
0.0
  0
LINE
  5
12E
330
1F
100
AcDbEntity
  8
0
  6
Continuous
 62
     1
370
    25
100
AcDbLine
 10
305.1105938204
 20
-260.0276087826
 30
0.0
 11
-34.8894061796
 21
-260.0276087826
 31
0.0
  0
SPLINE
  5
12F
330
1F
100
AcDbEntity
  8
0
  6
Continuous
 62
     7
370
    25
100
AcDbSpline
210
0.0
220
0.0
230
1.0
 70
     8
 71
     3
 72
    71
 73
    67
 74
     0
 42
0.00000001
 43
0.00000001
 40
0.0
 40
0.0
 40
0.0
 40
0.0
 40
0.0128841316962945
 40
0.0285943272894662
 40
0.0443151279437798
 40
0.0600458382602922
 40
0.0757854042863428
 40
0.0915325698491705
 40
0.1072860095295989
 40
0.1230444296909944
 40
0.1388066366411768
 40
0.1545715758835429
 40
0.1703383486847314
 40
0.1861062125489204
 40
0.2018745714327596
 40
0.2176428575960255
 40
0.2334107267632319
 40
0.2491779505803218
 40
0.2649443738546173
 40
0.2807099002598193
 40
0.2964744801422406
 40
0.3122381003615646
 40
0.3280007759854298
 40
0.3437625436060021
 40
0.3595234560357272
 40
0.3752835781513302
 40
0.3910429836783296
 40
0.4068017527358442
 40
0.4225599699890119
 40
0.4383177232818122
 40
0.4540751026453756
 40
0.4698321995955429
 40
0.4855891066488006
 40
0.5013459169976201
 40
0.5171027242953512
 40
0.5328596027733753
 40
0.5486166350352061
 40
0.5643739153595594
 40
0.5801315379634212
 40
0.5958895967566051
 40
0.6116481849734221
 40
0.6274073946267085
 40
0.6431673157209935
 40
0.6589280351482576
 40
0.6746896351729196
 40
0.6904521913923686
 40
0.7062157700351605
 40
0.7219804244318025
 40
0.7377461904637841
 40
0.7535130807679595
 40
0.7692810774503505
 40
0.7850501230539435
 40
0.8008201095420104
 40
0.8165908651216606
 40
0.8323621388694803
 40
0.8481335167270878
 40
0.8639044215621955
 40
0.879674208942087
 40
0.895442079086859
 40
0.9112070679751588
 40
0.9269680501281126
 40
0.9427237593325207
 40
0.9584728342015538
 40
0.9742138947626747
 40
0.9899456533775794
 40
0.9999999999999999
 40
0.9999999999999999
 40
0.9999999999999999
 40
0.9999999999999999
 10
582.0184410485126
 20
-95.02203149224961
 30
0.0
 10
580.8301717110365
 20
-94.89463775910609
 30
0.0
 10
578.1929926488575
 20
-94.61190717345235
 30
0.0
 10
573.9852094756576
 20
-94.49965096031279
 30
0.0
 10
569.4273647434073
 20
-94.62268729398615
 30
0.0
 10
564.7804726721723
 20
-95.02521546638843
 30
0.0
 10
560.0566160485866
 20
-95.69669603745714
 30
0.0
 10
555.263179244535
 20
-96.63869012273352
 30
0.0
 10
550.4089893936238
 20
-97.84884483098006
 30
0.0
 10
545.5026237062034
 20
-99.32519770488005
 30
0.0
 10
540.5528239946567
 20
-101.0650389732483
 30
0.0
 10
535.568353225526
 20
-103.065236636764
 30
0.0
 10
530.5580081050776
 20
-105.3221703791009
 30
0.0
 10
525.5305949587788
 20
-107.8317697566511
 30
0.0
 10
520.49492999688
 20
-110.5895170518492
 30
0.0
 10
515.4598155510923
 20
-113.5904664397127
 30
0.0
 10
510.4340270717489
 20
-116.829257721647
 30
0.0
 10
505.4262921519073
 20
-120.3001367812311
 30
0.0
 10
500.4452921082158
 20
-123.9969601865704
 30
0.0
 10
495.4996534821186
 20
-127.913204098539
 30
0.0
 10
490.5979361980936
 20
-132.0419750093586
 30
0.0
 10
485.7486212360843
 20
-136.3760208279473
 30
0.0
 10
480.960097896015
 20
-140.9077424406875
 30
0.0
 10
476.2406507482364
 20
-145.6292058357493
 30
0.0
 10
471.5984463693059
 20
-150.5321548418029
 30
0.0
 10
467.0415199599621
 20
-155.608024504521
 30
0.0
 10
462.5777619356545
 20
-160.8479551035585
 30
0.0
 10
458.2149045716595
 20
-166.2428067977848
 30
0.0
 10
453.9605087760974
 20
-171.7831748759799
 30
0.0
 10
449.8219510558383
 20
-177.459405582901
 30
0.0
 10
445.806410732758
 20
-183.2616124856399
 30
0.0
 10
441.9208574612363
 20
-189.1796933418165
 30
0.0
 10
438.1720390921212
 20
-195.2033474289451
 30
0.0
 10
434.5664699238303
 20
-201.3220932923118
 30
0.0
 10
431.1104208193007
 20
-207.5252842792837
 30
0.0
 10
427.8099074101308
 20
-213.8021279077556
 30
0.0
 10
424.6706786921486
 20
-220.1417061433463
 30
0.0
 10
421.6982059793628
 20
-226.5329971704629
 30
0.0
 10
418.8976743876642
 20
-232.9648935959476
 30
0.0
 10
416.2739748838694
 20
-239.4262202290284
 30
0.0
 10
413.8316961112246
 20
-245.905753486921
 30
0.0
 10
411.5751168177415
 20
-252.3922408342486
 30
0.0
 10
409.508198902874
 20
-258.8744201963914
 30
0.0
 10
407.6345810935684
 20
-265.3410392829197
 30
0.0
 10
405.9575732550936
 20
-271.7808747522341
 30
0.0
 10
404.4801513345581
 20
-278.1827511429602
 30
0.0
 10
403.2049529249902
 20
-284.5355594917313
 30
0.0
 10
402.1342734245586
 20
-290.8282755511571
 30
0.0
 10
401.2700627479103
 20
-297.049977517028
 30
0.0
 10
400.6139225242281
 20
-303.1898631708474
 30
0.0
 10
400.1671036867342
 20
-309.2372663470318
 30
0.0
 10
399.9305043273399
 20
-315.1816726379681
 30
0.0
 10
399.9046676325451
 20
-321.0127342912793
 30
0.0
 10
400.0897797300649
 20
-326.7202842171415
 30
0.0
 10
400.4856664497293
 20
-332.2943415158661
 30
0.0
 10
401.0917882248006
 20
-337.7251191570465
 30
0.0
 10
401.9072326828068
 20
-343.0030477171247
 30
0.0
 10
402.9307154582386
 20
-348.1187882691956
 30
0.0
 10
404.1605539683517
 20
-353.0632764198232
 30
0.0
 10
405.5947371329423
 20
-357.8276314156348
 30
0.0
 10
407.230621896624
 20
-362.4035425704809
 30
0.0
 10
409.0660240603546
 20
-366.7819215768862
 30
0.0
 10
411.095112907003
 20
-370.9580435965312
 30
0.0
 10
413.3237000181387
 20
-374.912510595925
 30
0.0
 10
415.425415993553
 20
-378.2297144417728
 30
0.0
 10
416.8600885062167
 20
-380.1309823033662
 30
0.0
 10
417.4194864687714
 20
-380.8723120205372
 30
0.0
  0
LINE
  5
130
330
1F
100
AcDbEntity
  8
0
  6
Continuous
 62
     7
370
    25
100
AcDbLine
 10
623.0965987605
 20
-112.7952966186
 30
0.0
 11
605.4189292308
 21
-102.5901952208
 31
0.0
  0
LINE
  5
131
330
1F
100
AcDbEntity
  8
0
  6
Continuous
 62
     7
370
    25
100
AcDbLine
 10
435.4327446827
 20
-397.0468084302
 30
0.0
 11
453.1104142124
 21
-407.251909828
 31
0.0
  0
SPLINE
  5
132
330
1F
100
AcDbEntity
  8
0
  6
Continuous
 62
     7
370
    25
100
AcDbSpline
210
0.0
220
0.0
230
1.0
 70
     8
 71
     3
 72
    58
 73
    54
 74
     0
 42
0.00000001
 43
0.00000001
 40
0.0
 40
0.0
 40
0.0
 40
0.0
 40
0.0151222661761899
 40
0.034847720774948
 40
0.054586571124692
 40
0.0743380285681053
 40
0.0941008237263627
 40
0.1138734055289237
 40
0.1336541135110705
 40
0.15344131091432
 40
0.1732334762125366
 40
0.1930292573434944
 40
0.212827496217702
 40
0.2326272318237477
 40
0.2524276894517231
 40
0.2722281543351935
 40
0.2920281473280091
 40
0.3118273663235048
 40
0.331625603975954
 40
0.3514227293630136
 40
0.3712186722819433
 40
0.3910134101243415
 40
0.4108069571181782
 40
0.4305993556516762
 40
0.4503906693739717
 40
0.4701809777791799
 40
0.4899703720081455
 40
0.5097589516363372
 40
0.5295468222511541
 40
0.5493340936543724
 40
0.5691208785540689
 40
0.5889072916346019
 40
0.6086934489129525
 40
0.6284794673054859
 40
0.6482654643409727
 40
0.6680515390325182
 40
0.6878377892255526
 40
0.7076243332985289
 40
0.7274112895890182
 40
0.7471987761028426
 40
0.7669869100787815
 40
0.7867758073408587
 40
0.8065655813609408
 40
0.8263563419382853
 40
0.8461481933822399
 40
0.8659412320594164
 40
0.8857355431370009
 40
0.9055311963202226
 40
0.925328240345434
 40
0.9451266959539946
 40
0.9649265470417077
 40
0.9847277296631601
 40
1.0
 40
1.0
 40
1.0
 40
1.0
 10
476.1007340627422
 20
-414.7669188215065
 30
0.0
 10
477.2075945348244
 20
-414.8958408607457
 30
0.0
 10
479.7582416546771
 20
-415.1929285573118
 30
0.0
 10
483.8737281997824
 20
-415.3379015891807
 30
0.0
 10
488.4177925098226
 20
-415.2560016614625
 30
0.0
 10
493.0524818442785
 20
-414.8936757380168
 30
0.0
 10
497.7652747551776
 20
-414.2625169765755
 30
0.0
 10
502.5489359080059
 20
-413.360581883785
 30
0.0
 10
507.3946223534425
 20
-412.1902267984509
 30
0.0
 10
512.2937788373888
 20
-410.7533161023136
 30
0.0
 10
517.2376699653503
 20
-409.0524914673046
 30
0.0
 10
522.2175389816277
 20
-407.0908118524512
 30
0.0
 10
527.2245919574447
 20
-404.8718289843382
 30
0.0
 10
532.2500234437246
 20
-402.3995464933316
 30
0.0
 10
537.2850180419049
 20
-399.6784164906794
 30
0.0
 10
542.3207703022117
 20
-396.7133220598146
 30
0.0
 10
547.3485001295431
 20
-393.5095625468724
 30
0.0
 10
552.3594720051386
 20
-390.0728343797646
 30
0.0
 10
557.3449974425281
 20
-386.4092234872916
 30
0.0
 10
562.2964410134548
 20
-382.5251977843298
 30
0.0
 10
567.2052321123891
 20
-378.4275964704529
 30
0.0
 10
572.0628772162877
 20
-374.123619005226
 30
0.0
 10
576.8609725650256
 20
-369.6208136248241
 30
0.0
 10
581.5912171705106
 20
-364.9270653055297
 30
0.0
 10
586.2454260552126
 20
-360.0505831185057
 30
0.0
 10
590.8155436225712
 20
-354.9998869487818
 30
0.0
 10
595.2936570677898
 20
-349.7837935731
 30
0.0
 10
599.6720097456924
 20
-344.4114021069271
 30
0.0
 10
603.9430144210461
 20
-338.8920788420811
 30
0.0
 10
608.0992663351633
 20
-333.2354415041497
 30
0.0
 10
612.1335560302654
 20
-327.4513429641499
 30
0.0
 10
616.0388818797953
 20
-321.5498544424669
 30
0.0
 10
619.8084622786706
 20
-315.5412482454582
 30
0.0
 10
623.4357474521988
 20
-309.4359800770795
 30
0.0
 10
626.9144297374676
 20
-303.2446729428937
 30
0.0
 10
630.2384547124891
 20
-296.9780990272013
 30
0.0
 10
633.4020330697692
 20
-290.6471588877306
 30
0.0
 10
636.3996514845769
 20
-284.2628603509374
 30
0.0
 10
639.2260818108068
 20
-277.8362990696982
 30
0.0
 10
641.8763887877653
 20
-271.3786413736024
 30
0.0
 10
644.3459382889157
 20
-264.9011048813203
 30
0.0
 10
646.6304050360324
 20
-258.4149390327339
 30
0.0
 10
648.7257794523696
 20
-251.9314057787824
 30
0.0
 10
650.6283748009428
 20
-245.4617598261416
 30
0.0
 10
652.3348302802199
 20
-239.017230990595
 30
0.0
 10
653.8421262068248
 20
-232.608999454974
 30
0.0
 10
655.1475510970287
 20
-226.2481986390879
 30
0.0
 10
656.2488453559813
 20
-219.9458165215532
 30
0.0
 10
657.143682992352
 20
-213.7129779026849
 30
0.0
 10
657.8316215258066
 20
-207.5598071787641
 30
0.0
 10
658.3068372359484
 20
-201.4995920704081
 30
0.0
 10
658.564019784096
 20
-195.9881661791097
 30
0.0
 10
658.5922569898656
 20
-192.5390079993116
 30
0.0
 10
658.6045525069507
 20
-191.0371177742734
 30
0.0
  0
SPLINE
  5
133
330
1F
100
AcDbEntity
  8
0
  6
Continuous
 62
     7
370
    25
100
AcDbSpline
210
0.0
220
0.0
230
1.0
 70
     8
 71
     3
 72
    21
 73
    17
 74
     0
 42
0.00000001
 43
0.00000001
 40
0.0
 40
0.0
 40
0.0
 40
0.0
 40
0.0410062105683129
 40
0.118896943469268
 40
0.1967949315769574
 40
0.274693013875646
 40
0.3525883320597652
 40
0.4304775932720528
 40
0.5083567282200868
 40
0.5862208540940754
 40
0.6640642994145829
 40
0.7418807224753993
 40
0.819663357447956
 40
0.8974054173804256
 40
0.9751006671427029
 40
1.0
 40
1.0
 40
1.0
 40
1.0
 10
658.6045525069507
 20
-191.0371177742734
 30
0.0
 10
658.5986730043104
 20
-190.0200468191551
 30
0.0
 10
658.5816254672825
 20
-187.0710635754225
 30
0.0
 10
658.392210425763
 20
-182.2846543362543
 30
0.0
 10
657.9672668748012
 20
-176.730170280785
 30
0.0
 10
657.3293290055476
 20
-171.3218681631681
 30
0.0
 10
656.4830036503417
 20
-166.0673954854111
 30
0.0
 10
655.4286564233569
 20
-160.9765938769193
 30
0.0
 10
654.168297749789
 20
-156.0583338865946
 30
0.0
 10
652.7038915267726
 20
-151.3215396192457
 30
0.0
 10
651.0382950658355
 20
-146.7742992202837
 30
0.0
 10
649.1732439171335
 20
-142.4262854390849
 30
0.0
 10
647.1165150683257
 20
-138.2798240874036
 30
0.0
 10
644.8553352411038
 20
-134.363005836572
 30
0.0
 10
642.9985662597607
 20
-131.4562269206949
 30
0.0
 10
641.835916235245
 20
-129.9336075956298
 30
0.0
 10
641.5537452938778
 20
-129.5640734114484
 30
0.0
  0
SPLINE
  5
134
330
1F
100
AcDbEntity
  8
0
  6
Continuous
 62
     7
370
    25
100
AcDbSpline
210
0.0
220
0.0
230
1.0
 70
     8
 71
     3
 72
    20
 73
    16
 74
     0
 42
0.00000001
 43
0.00000001
 40
0.0
 40
0.0
 40
0.0
 40
0.0
 40
0.0041061708134253
 40
0.0899473457996325
 40
0.1756821570774247
 40
0.2613110869808284
 40
0.346842759714718
 40
0.4322907589680283
 40
0.5176707805234536
 40
0.6029985075130502
 40
0.6882882675644268
 40
0.7735523477911028
 40
0.8588007813094722
 40
0.9440414282706998
 40
1.0
 40
1.0
 40
1.0
 40
1.0
 10
589.3787379568307
 20
-156.550077604505
 30
0.0
 10
589.4166347513587
 20
-156.5905387040689
 30
0.0
 10
590.2467794864416
 20
-157.4768555864569
 30
0.0
 10
591.7102681788987
 20
-159.4287563657572
 30
0.0
 10
593.7479363247327
 20
-162.4151444172599
 30
0.0
 10
595.581583011164
 20
-165.6482103558782
 30
0.0
 10
597.2314148265506
 20
-169.0852285209269
 30
0.0
 10
598.6870150489414
 20
-172.7268903129897
 30
0.0
 10
599.9466659240065
 20
-176.5617920880721
 30
0.0
 10
601.0069229442131
 20
-180.5811758772921
 30
0.0
 10
601.8649694053989
 20
-184.7752046838023
 30
0.0
 10
602.5196446545408
 20
-189.1329983738993
 30
0.0
 10
602.9650985037313
 20
-193.6461457619928
 30
0.0
 10
603.1866434052323
 20
-197.7624076641317
 30
0.0
 10
603.2090933887915
 20
-200.4007295477471
 30
0.0
 10
603.2179905273663
 20
-201.4463212000129
 30
0.0
  0
SPLINE
  5
135
330
1F
100
AcDbEntity
  8
0
  6
Continuous
 62
     7
370
    25
100
AcDbSpline
210
0.0
220
0.0
230
1.0
 70
     8
 71
     3
 72
    51
 73
    47
 74
     0
 42
0.00000001
 43
0.00000001
 40
0.0
 40
0.0
 40
0.0
 40
0.0
 40
0.0123282031684577
 40
0.0357777059947144
 40
0.0592307767591312
 40
0.0826857927622087
 40
0.1061430858593558
 40
0.1296028117520129
 40
0.1530649945146827
 40
0.1765295618038956
 40
0.1999963718394217
 40
0.2234652337117042
 40
0.2469359224044065
 40
0.2704081897086251
 40
0.2938817719922002
 40
0.3173563955965423
 40
0.3408317804729588
 40
0.3643076425419891
 40
0.3877836951611034
 40
0.411259617116556
 40
0.4347350557689853
 40
0.4582097213629093
 40
0.4816833245497651
 40
0.5051555776643895
 40
0.528626196824457
 40
0.5520949052090608
 40
0.5755614379792522
 40
0.5990255494268206
 40
0.622487023093581
 40
0.6459456857923345
 40
0.6694014266761928
 40
0.6928542227278344
 40
0.7163041722353467
 40
0.7397515379125462
 40
0.7631968011775329
 40
0.7866407285077426
 40
0.810084288496788
 40
0.8335286469397396
 40
0.8569757352734483
 40
0.8804280745337192
 40
0.9038888270907494
 40
0.927361787733938
 40
0.9508512702244105
 40
0.9743618378958429
 40
0.9978978325206262
 40
1.0
 40
1.0
 40
1.0
 40
1.0
 10
603.2179905273663
 20
-201.4463212000129
 30
0.0
 10
603.2122006547504
 20
-202.2911904148969
 30
0.0
 10
603.1953978524796
 20
-204.7430872534762
 30
0.0
 10
603.0085260635968
 20
-208.8923406026117
 30
0.0
 10
602.5891220398145
 20
-213.9183535784684
 30
0.0
 10
601.9597791758581
 20
-219.0375604254547
 30
0.0
 10
601.1255185284526
 20
-224.2346766793462
 30
0.0
 10
600.0873443343089
 20
-229.4971208837344
 30
0.0
 10
598.8480101645697
 20
-234.8113888054422
 30
0.0
 10
597.4104701165996
 20
-240.1640329168457
 30
0.0
 10
595.778284123623
 20
-245.5414487691899
 30
0.0
 10
593.9554973267554
 20
-250.9299802440287
 30
0.0
 10
591.9466584721608
 20
-256.3159385206677
 30
0.0
 10
589.7567993738598
 20
-261.6856434020493
 30
0.0
 10
587.3914233109923
 20
-267.0254579441158
 30
0.0
 10
584.856489661085
 20
-272.3218242214445
 30
0.0
 10
582.1583982686125
 20
-277.5612981592286
 30
0.0
 10
579.3039726850044
 20
-282.7305839977896
 30
0.0
 10
576.3004439728882
 20
-287.8165658593531
 30
0.0
 10
573.1554339595634
 20
-292.8063392892403
 30
0.0
 10
569.8769336092812
 20
-297.687249186341
 30
0.0
 10
566.4732810990589
 20
-302.446924541757
 30
0.0
 10
562.9531389370364
 20
-307.0733119486517
 30
0.0
 10
559.325475129989
 20
-311.5547023154655
 30
0.0
 10
555.5995407586605
 20
-315.8797614355148
 30
0.0
 10
551.7848467721245
 20
-320.0375599073847
 30
0.0
 10
547.891139972575
 20
-324.0176023762216
 30
0.0
 10
543.9283781362382
 20
-327.8098560636747
 30
0.0
 10
539.9067041845938
 20
-331.4047785437623
 30
0.0
 10
535.8364192815758
 20
-334.7933446999872
 30
0.0
 10
531.7279546846667
 20
-337.9670727664238
 30
0.0
 10
527.591842134735
 20
-340.918049279114
 30
0.0
 10
523.4386824951968
 20
-343.6389527302522
 30
0.0
 10
519.2791124155931
 20
-346.1230753578245
 30
0.0
 10
515.1237684319598
 20
-348.3643431414192
 30
0.0
 10
510.9832588286425
 20
-350.3573261670072
 30
0.0
 10
506.8681347190334
 20
-352.0972533968699
 30
0.0
 10
502.7888415643858
 20
-353.5800111819847
 30
0.0
 10
498.7556303898079
 20
-354.8022268733641
 30
0.0
 10
494.7786296719549
 20
-355.7609667726307
 30
0.0
 10
490.8673313012185
 20
-356.4548116994213
 30
0.0
 10
487.0323705526504
 20
-356.8797147823968
 30
0.0
 10
483.2787235133197
 20
-357.0443195017717
 30
0.0
 10
479.6310419940154
 20
-356.9125319907552
 30
0.0
 10
477.1308137377999
 20
-356.7074825142095
 30
0.0
 10
475.8835617712605
 20
-356.4700594575615
 30
0.0
 10
475.7812949819332
 20
-356.4505922653926
 30
0.0
  0
SPLINE
  5
136
330
1F
100
AcDbEntity
  8
0
  6
Continuous
 62
     7
370
    25
100
AcDbSpline
210
0.0
220
0.0
230
1.0
 70
     8
 71
     3
 72
    13
 73
     9
 74
     0
 42
0.00000001
 43
0.00000001
 40
0.0
 40
0.0
 40
0.0
 40
0.0
 40
0.0213876440744518
 40
0.2552341454925499
 40
0.4603303484884798
 40
0.6784187615831706
 40
0.8906960965912449
 40
1.0
 40
1.0
 40
1.0
 40
1.0
 10
599.7673634728261
 20
-282.9496297519761
 30
0.0
 10
599.7934275067312
 20
-282.9616061930842
 30
0.0
 10
600.1044683768092
 20
-283.1045296820687
 30
0.0
 10
600.541426038784
 20
-283.5805932579518
 30
0.0
 10
601.0925146803875
 20
-284.4187436145206
 30
0.0
 10
601.464742210193
 20
-285.4844532068357
 30
0.0
 10
601.6403088983647
 20
-286.5557089454601
 30
0.0
 10
601.6558395409048
 20
-287.2670730842968
 30
0.0
 10
601.6611183309875
 20
-287.5088623052808
 30
0.0
  0
SPLINE
  5
137
330
1F
100
AcDbEntity
  8
0
  6
Continuous
 62
     7
370
    25
100
AcDbSpline
210
0.0
220
0.0
230
1.0
 70
     8
 71
     3
 72
    22
 73
    18
 74
     0
 42
0.00000001
 43
0.00000001
 40
0.0
 40
0.0
 40
0.0
 40
0.0
 40
0.0357957841880399
 40
0.1045261594770878
 40
0.1734959821004448
 40
0.2426747877289157
 40
0.3120162477226613
 40
0.3814428720991117
 40
0.4508656940685352
 40
0.520166373864868
 40
0.5892547153370149
 40
0.6580502909886825
 40
0.7265115741576016
 40
0.7947102482258862
 40
0.8628985641336336
 40
0.9317178103463523
 40
0.9999999999999999
 40
0.9999999999999999
 40
0.9999999999999999
 40
0.9999999999999999
 10
601.6611183309875
 20
-287.5088623052808
 30
0.0
 10
601.6558148637964
 20
-287.7584208164133
 30
0.0
 10
601.6403283736979
 20
-288.4871488866373
 30
0.0
 10
601.4649935157111
 20
-289.789111588356
 30
0.0
 10
601.069649531463
 20
-291.4046074290177
 30
0.0
 10
600.4825414954126
 20
-293.052174364719
 30
0.0
 10
599.7210520166992
 20
-294.682788751572
 30
0.0
 10
598.8042973930418
 20
-296.2512764384363
 30
0.0
 10
597.7581272516635
 20
-297.7131675661519
 30
0.0
 10
596.6128822040654
 20
-299.0276386207223
 30
0.0
 10
595.4029979179307
 20
-300.1586654468078
 30
0.0
 10
594.1657242606824
 20
-301.0768928862198
 30
0.0
 10
592.9404390191426
 20
-301.7605118646605
 30
0.0
 10
591.7655784301375
 20
-302.1992197605459
 30
0.0
 10
590.6806259536583
 20
-302.387177383736
 30
0.0
 10
589.710597343147
 20
-302.3552479365289
 30
0.0
 10
589.1797877075168
 20
-302.1534765535837
 30
0.0
 10
588.9154225389022
 20
-302.0529860536128
 30
0.0
  0
SPLINE
  5
138
330
1F
100
AcDbEntity
  8
0
  6
Continuous
 62
     7
370
    25
100
AcDbSpline
210
0.0
220
0.0
230
1.0
 70
     8
 71
     3
 72
    62
 73
    58
 74
     0
 42
0.00000001
 43
0.00000001
 40
0.0
 40
0.0
 40
0.0
 40
0.0
 40
0.0050252527839532
 40
0.0237218641408346
 40
0.0423951014560857
 40
0.0610462016745998
 40
0.0796777654508706
 40
0.0982930914436366
 40
0.1168956438484375
 40
0.1354886917086187
 40
0.1540751055751406
 40
0.1726572739491828
 40
0.1912370988720728
 40
0.2098160367676881
 40
0.228394931541344
 40
0.2469745465174918
 40
0.2655554631031378
 40
0.2841380476283674
 40
0.3027225012964117
 40
0.3213089009670402
 40
0.3398972314987736
 40
0.3584874108228457
 40
0.3770793090133472
 40
0.3956727625392736
 40
0.414267584731895
 40
0.4328635733291866
 40
0.451460515796042
 40
0.4700581929771274
 40
0.4886563815225527
 40
0.5072548554348908
 40
0.525853387017205
 40
0.5444516902317493
 40
0.5630495166757505
 40
0.5816466368362214
 40
0.6002428218727416
 40
0.6188378448660741
 40
0.6374314828244212
 40
0.6560235197635472
 40
0.6746137512644663
 40
0.6932019910204551
 40
0.7117880800196702
 40
0.7303718991688513
 40
0.7489533863397962
 40
0.7675325589938303
 40
0.7861095436695936
 40
0.8046846136313675
 40
0.8232582357400491
 40
0.8418311269209359
 40
0.860404021951103
 40
0.878978122720748
 40
0.8975551435579493
 40
0.9161372866155493
 40
0.9347272668273071
 40
0.9533282756497911
 40
0.9719438456579647
 40
0.9905775753013684
 40
1.0
 40
1.0
 40
1.0
 40
1.0
 10
468.3248980348019
 20
-352.2761322060913
 30
0.0
 10
468.1200055392022
 20
-352.0378524764851
 30
0.0
 10
467.1528040564002
 20
-350.9130455033346
 30
0.0
 10
465.5980634090537
 20
-348.6681483944423
 30
0.0
 10
463.673655493718
 20
-345.5440830023376
 30
0.0
 10
461.9499658624568
 20
-342.1870374260245
 30
0.0
 10
460.4140054049524
 20
-338.6286628174677
 30
0.0
 10
459.0739463234894
 20
-334.8715148132046
 30
0.0
 10
457.9317859766964
 20
-330.9264523175946
 30
0.0
 10
456.9906668056588
 20
-326.8026708484978
 30
0.0
 10
456.2529014348697
 20
-322.5103942047049
 30
0.0
 10
455.7204722551201
 20
-318.0601600175278
 30
0.0
 10
455.3948646489179
 20
-313.4629987513633
 30
0.0
 10
455.2770810522612
 20
-308.7303780276314
 30
0.0
 10
455.3676071368749
 20
-303.874167148271
 30
0.0
 10
455.666400888585
 20
-298.9065899734762
 30
0.0
 10
456.1728877228543
 20
-293.8401659929444
 30
0.0
 10
456.8859576358151
 20
-288.6876913027253
 30
0.0
 10
457.8039635542208
 20
-283.4622065496948
 30
0.0
 10
458.9247232684158
 20
-278.1769569259978
 30
0.0
 10
460.2455241183815
 20
-272.8453526994342
 30
0.0
 10
461.7631299612847
 20
-267.4809304015563
 30
0.0
 10
463.4737900281541
 20
-262.0973147147286
 30
0.0
 10
465.3732493795563
 20
-256.708181030132
 30
0.0
 10
467.4567607446833
 20
-251.3272186286481
 30
0.0
 10
469.7190975872481
 20
-245.9680944338831
 30
0.0
 10
472.1545682841331
 20
-240.6444172956246
 30
0.0
 10
474.7570313327651
 20
-235.3697027754214
 30
0.0
 10
477.5199115238905
 20
-230.1573384198209
 30
0.0
 10
480.4362170292684
 20
-225.0205495208858
 30
0.0
 10
483.4985542250989
 20
-219.9723705470929
 30
0.0
 10
486.6991479084173
 20
-215.0256079495606
 30
0.0
 10
490.0298619301257
 20
-210.1928054118892
 30
0.0
 10
493.4822234750282
 20
-205.4862068856991
 30
0.0
 10
497.0474424252924
 20
-200.9177286879815
 30
0.0
 10
500.7164322427239
 20
-196.4989302409472
 30
0.0
 10
504.4798327108101
 20
-192.2409837642464
 30
0.0
 10
508.3280334666144
 20
-188.1546446288373
 30
0.0
 10
512.251198361139
 20
-184.2502224022994
 30
0.0
 10
516.2392907144446
 20
-180.5375526211908
 30
0.0
 10
520.2820995661068
 20
-177.02596934082
 30
0.0
 10
524.3692670644734
 20
-173.7242785373067
 30
0.0
 10
528.490317182882
 20
-170.6407324901716
 30
0.0
 10
532.6346860139228
 20
-167.7830053169537
 30
0.0
 10
536.7917538897478
 20
-165.1581700511747
 30
0.0
 10
540.9508797740559
 20
-162.7726774040815
 30
0.0
 10
545.1014376885599
 20
-160.6323380944791
 30
0.0
 10
549.2328352286418
 20
-158.7423152861505
 30
0.0
 10
553.334557857818
 20
-157.1071151301823
 30
0.0
 10
557.39623534214
 20
-155.7305369809231
 30
0.0
 10
561.4076459686803
 20
-154.6158153472758
 30
0.0
 10
565.3589847824211
 20
-153.7650960186401
 30
0.0
 10
569.2400345892222
 20
-153.1814864466686
 30
0.0
 10
573.0434215254646
 20
-152.8615308901017
 30
0.0
 10
576.7525815602629
 20
-152.8234940713902
 30
0.0
 10
579.7865777447015
 20
-152.9724176834977
 30
0.0
 10
581.537895396434
 20
-153.2359766622633
 30
0.0
 10
582.1260607770367
 20
-153.3244907401656
 30
0.0
  0
SPLINE
  5
139
330
1F
100
AcDbEntity
  8
0
  6
Continuous
 62
     7
370
    25
100
AcDbSpline
210
0.0
220
0.0
230
1.0
 70
     8
 71
     3
 72
    13
 73
     9
 74
     0
 42
0.00000001
 43
0.00000001
 40
0.0
 40
0.0
 40
0.0
 40
0.0
 40
0.0213876440744219
 40
0.2552341454924999
 40
0.4603303484884184
 40
0.6784187615830852
 40
0.8906960965911624
 40
1.0
 40
1.0
 40
1.0
 40
1.0
 10
630.3156136978484
 20
-180.1507223543586
 30
0.0
 10
630.3416777317535
 20
-180.1626987954668
 30
0.0
 10
630.6527186018316
 20
-180.3056222844512
 30
0.0
 10
631.0896762638063
 20
-180.7816858603342
 30
0.0
 10
631.6407649054098
 20
-181.6198362169029
 30
0.0
 10
632.0129924352152
 20
-182.6855458092179
 30
0.0
 10
632.1885591233869
 20
-183.7568015478423
 30
0.0
 10
632.2040897659274
 20
-184.4681656866792
 30
0.0
 10
632.20936855601
 20
-184.7099549076634
 30
0.0
  0
SPLINE
  5
13A
330
1F
100
AcDbEntity
  8
0
  6
Continuous
 62
     7
370
    25
100
AcDbSpline
210
0.0
220
0.0
230
1.0
 70
     8
 71
     3
 72
    22
 73
    18
 74
     0
 42
0.00000001
 43
0.00000001
 40
0.0
 40
0.0
 40
0.0
 40
0.0
 40
0.03579578418804
 40
0.1045261594770761
 40
0.1734959821004379
 40
0.2426747877289139
 40
0.3120162477226537
 40
0.3814428720991062
 40
0.4508656940685316
 40
0.5201663738648621
 40
0.58925471533701
 40
0.6580502909886771
 40
0.7265115741575935
 40
0.7947102482258785
 40
0.862898564133623
 40
0.9317178103463448
 40
1.0
 40
1.0
 40
1.0
 40
1.0
 10
632.20936855601
 20
-184.7099549076634
 30
0.0
 10
632.2040650888189
 20
-184.9595134187959
 30
0.0
 10
632.1885785987205
 20
-185.6882414890198
 30
0.0
 10
632.0132437407335
 20
-186.9902041907385
 30
0.0
 10
631.6178997564856
 20
-188.6057000314001
 30
0.0
 10
631.0307917204352
 20
-190.2532669671014
 30
0.0
 10
630.2693022417218
 20
-191.8838813539545
 30
0.0
 10
629.3525476180644
 20
-193.4523690408187
 30
0.0
 10
628.306377476686
 20
-194.9142601685343
 30
0.0
 10
627.161132429088
 20
-196.2287312231047
 30
0.0
 10
625.9512481429532
 20
-197.3597580491902
 30
0.0
 10
624.7139744857051
 20
-198.2779854886023
 30
0.0
 10
623.4886892441651
 20
-198.961604467043
 30
0.0
 10
622.31382865516
 20
-199.4003123629284
 30
0.0
 10
621.2288761786808
 20
-199.5882699861185
 30
0.0
 10
620.2588475681696
 20
-199.5563405389115
 30
0.0
 10
619.7280379325392
 20
-199.3545691559663
 30
0.0
 10
619.4636727639248
 20
-199.2540786559954
 30
0.0
  0
SPLINE
  5
13B
330
1F
100
AcDbEntity
  8
0
  6
Continuous
 62
     7
370
    25
100
AcDbSpline
210
0.0
220
0.0
230
1.0
 70
     8
 71
     3
 72
    13
 73
     9
 74
     0
 42
0.00000001
 43
0.00000001
 40
0.0
 40
0.0
 40
0.0
 40
0.0
 40
0.0213876440744851
 40
0.2552341454925892
 40
0.4603303484885263
 40
0.67841876158322
 40
0.8906960965912947
 40
1.0
 40
1.0
 40
1.0
 40
1.0
 10
526.0173634728214
 20
-360.8005903544328
 30
0.0
 10
526.0434275067265
 20
-360.812566795541
 30
0.0
 10
526.3544683768047
 20
-360.9554902845255
 30
0.0
 10
526.7914260387795
 20
-361.4315538604087
 30
0.0
 10
527.3425146803829
 20
-362.2697042169776
 30
0.0
 10
527.7147422101883
 20
-363.3354138092927
 30
0.0
 10
527.89030889836
 20
-364.406669547917
 30
0.0
 10
527.9058395409002
 20
-365.1180336867537
 30
0.0
 10
527.9111183309828
 20
-365.3598229077375
 30
0.0
  0
SPLINE
  5
13C
330
1F
100
AcDbEntity
  8
0
  6
Continuous
 62
     7
370
    25
100
AcDbSpline
210
0.0
220
0.0
230
1.0
 70
     8
 71
     3
 72
    22
 73
    18
 74
     0
 42
0.00000001
 43
0.00000001
 40
0.0
 40
0.0
 40
0.0
 40
0.0
 40
0.0357957841880388
 40
0.1045261594770928
 40
0.1734959821004477
 40
0.2426747877289187
 40
0.3120162477226619
 40
0.3814428720991113
 40
0.4508656940685317
 40
0.5201663738648653
 40
0.5892547153370135
 40
0.6580502909886815
 40
0.7265115741575984
 40
0.7947102482258841
 40
0.8628985641336279
 40
0.9317178103463574
 40
1.0
 40
1.0
 40
1.0
 40
1.0
 10
527.9111183309828
 20
-365.3598229077375
 30
0.0
 10
527.9058148637918
 20
-365.60938141887
 30
0.0
 10
527.8903283736935
 20
-366.3381094890941
 30
0.0
 10
527.7149935157064
 20
-367.6400721908129
 30
0.0
 10
527.3196495314584
 20
-369.2555680314746
 30
0.0
 10
526.732541495408
 20
-370.9031349671758
 30
0.0
 10
525.9710520166946
 20
-372.5337493540288
 30
0.0
 10
525.0542973930371
 20
-374.102237040893
 30
0.0
 10
524.0081272516587
 20
-375.5641281686087
 30
0.0
 10
522.8628822040606
 20
-376.8785992231791
 30
0.0
 10
521.652997917926
 20
-378.0096260492646
 30
0.0
 10
520.4157242606777
 20
-378.9278534886765
 30
0.0
 10
519.1904390191378
 20
-379.6114724671172
 30
0.0
 10
518.0155784301327
 20
-380.0501803630026
 30
0.0
 10
516.9306259536535
 20
-380.2381379861927
 30
0.0
 10
515.9605973431422
 20
-380.2062085389856
 30
0.0
 10
515.4297877075119
 20
-380.0044371560404
 30
0.0
 10
515.1654225388975
 20
-379.9039466560694
 30
0.0
  0
SPLINE
  5
13D
330
1F
100
AcDbEntity
  8
0
  6
Continuous
 62
     7
370
    25
100
AcDbSpline
210
0.0
220
0.0
230
1.0
 70
     8
 71
     3
 72
    13
 73
     9
 74
     0
 42
0.00000001
 43
0.00000001
 40
0.0
 40
0.0
 40
0.0
 40
0.0
 40
0.0213876440744973
 40
0.2552341454926043
 40
0.4603303484885342
 40
0.6784187615832141
 40
0.8906960965912893
 40
1.0
 40
1.0
 40
1.0
 40
1.0
 10
599.7673634728376
 20
-112.622073917969
 30
0.0
 10
599.7934275067427
 20
-112.6340503590772
 30
0.0
 10
600.1044683768208
 20
-112.7769738480618
 30
0.0
 10
600.5414260387956
 20
-113.2530374239449
 30
0.0
 10
601.0925146803992
 20
-114.0911877805139
 30
0.0
 10
601.4647422102045
 20
-115.1568973728289
 30
0.0
 10
601.640308898376
 20
-116.2281531114532
 30
0.0
 10
601.6558395409164
 20
-116.9395172502898
 30
0.0
 10
601.6611183309989
 20
-117.1813064712737
 30
0.0
  0
SPLINE
  5
13E
330
1F
100
AcDbEntity
  8
0
  6
Continuous
 62
     7
370
    25
100
AcDbSpline
210
0.0
220
0.0
230
1.0
 70
     8
 71
     3
 72
    22
 73
    18
 74
     0
 42
0.00000001
 43
0.00000001
 40
0.0
 40
0.0
 40
0.0
 40
0.0
 40
0.0357957841880394
 40
0.1045261594770979
 40
0.1734959821004534
 40
0.242674787728926
 40
0.3120162477226607
 40
0.3814428720991155
 40
0.4508656940685337
 40
0.5201663738648661
 40
0.5892547153370151
 40
0.6580502909886848
 40
0.7265115741575999
 40
0.7947102482258808
 40
0.8628985641336266
 40
0.9317178103463438
 40
1.0
 40
1.0
 40
1.0
 40
1.0
 10
601.6611183309989
 20
-117.1813064712737
 30
0.0
 10
601.6558148638079
 20
-117.4308649824063
 30
0.0
 10
601.6403283737095
 20
-118.1595930526303
 30
0.0
 10
601.4649935157224
 20
-119.4615557543492
 30
0.0
 10
601.0696495314745
 20
-121.0770515950109
 30
0.0
 10
600.482541495424
 20
-122.7246185307122
 30
0.0
 10
599.7210520167107
 20
-124.3552329175651
 30
0.0
 10
598.8042973930532
 20
-125.9237206044293
 30
0.0
 10
597.7581272516749
 20
-127.3856117321449
 30
0.0
 10
596.6128822040768
 20
-128.7000827867153
 30
0.0
 10
595.402997917942
 20
-129.8311096128008
 30
0.0
 10
594.1657242606938
 20
-130.7493370522128
 30
0.0
 10
592.9404390191538
 20
-131.4329560306534
 30
0.0
 10
591.7655784301487
 20
-131.8716639265388
 30
0.0
 10
590.6806259536696
 20
-132.0596215497289
 30
0.0
 10
589.7105973431585
 20
-132.0276921025218
 30
0.0
 10
589.1797877075281
 20
-131.8259207195766
 30
0.0
 10
588.9154225389136
 20
-131.7254302196056
 30
0.0
  0
SPLINE
  5
13F
330
1F
100
AcDbEntity
  8
0
  6
Continuous
 62
     7
370
    25
100
AcDbSpline
210
0.0
220
0.0
230
1.0
 70
     8
 71
     3
 72
    13
 73
     9
 74
     0
 42
0.00000001
 43
0.00000001
 40
0.0
 40
0.0
 40
0.0
 40
0.0
 40
0.0213876440744832
 40
0.2552341454925794
 40
0.4603303484885131
 40
0.678418761583208
 40
0.8906960965912886
 40
1.0
 40
1.0
 40
1.0
 40
1.0
 10
452.2673634728216
 20
-368.0995672845833
 30
0.0
 10
452.2934275067266
 20
-368.1115437256914
 30
0.0
 10
452.6044683768049
 20
-368.2544672146759
 30
0.0
 10
453.0414260387796
 20
-368.730530790559
 30
0.0
 10
453.5925146803831
 20
-369.568681147128
 30
0.0
 10
453.9647422101884
 20
-370.6343907394431
 30
0.0
 10
454.14030889836
 20
-371.7056464780674
 30
0.0
 10
454.1558395409003
 20
-372.4170106169041
 30
0.0
 10
454.161118330983
 20
-372.658799837888
 30
0.0
  0
SPLINE
  5
140
330
1F
100
AcDbEntity
  8
0
  6
Continuous
 62
     7
370
    25
100
AcDbSpline
210
0.0
220
0.0
230
1.0
 70
     8
 71
     3
 72
    22
 73
    18
 74
     0
 42
0.00000001
 43
0.00000001
 40
0.0
 40
0.0
 40
0.0
 40
0.0
 40
0.0357957841880396
 40
0.1045261594770983
 40
0.1734959821004542
 40
0.2426747877289271
 40
0.3120162477226621
 40
0.3814428720991172
 40
0.4508656940685357
 40
0.5201663738648684
 40
0.5892547153370178
 40
0.658050290988688
 40
0.7265115741576001
 40
0.7947102482258878
 40
0.8628985641336304
 40
0.9317178103463513
 40
1.0
 40
1.0
 40
1.0
 40
1.0
 10
454.161118330983
 20
-372.658799837888
 30
0.0
 10
454.1558148637919
 20
-372.9083583490205
 30
0.0
 10
454.1403283736935
 20
-373.6370864192446
 30
0.0
 10
453.9649935157065
 20
-374.9390491209633
 30
0.0
 10
453.5696495314584
 20
-376.5545449616253
 30
0.0
 10
452.982541495408
 20
-378.2021118973263
 30
0.0
 10
452.2210520166947
 20
-379.8327262841793
 30
0.0
 10
451.3042973930372
 20
-381.4012139710435
 30
0.0
 10
450.2581272516588
 20
-382.8631050987591
 30
0.0
 10
449.1128822040608
 20
-384.1775761533295
 30
0.0
 10
447.902997917926
 20
-385.3086029794151
 30
0.0
 10
446.6657242606778
 20
-386.226830418827
 30
0.0
 10
445.4404390191378
 20
-386.9104493972677
 30
0.0
 10
444.2655784301328
 20
-387.349157293153
 30
0.0
 10
443.1806259536536
 20
-387.5371149163431
 30
0.0
 10
442.2105973431425
 20
-387.5051854691361
 30
0.0
 10
441.6797877075122
 20
-387.3034140861908
 30
0.0
 10
441.4154225388977
 20
-387.2029235862198
 30
0.0
  0
SPLINE
  5
141
330
1F
100
AcDbEntity
  8
0
  6
Continuous
 62
     7
370
    25
100
AcDbSpline
210
0.0
220
0.0
230
1.0
 70
     8
 71
     3
 72
    13
 73
     9
 74
     0
 42
0.00000001
 43
0.00000001
 40
0.0
 40
0.0
 40
0.0
 40
0.0
 40
0.0213876440743969
 40
0.2552341454924597
 40
0.4603303484883889
 40
0.6784187615830897
 40
0.8906960965911632
 40
1.0
 40
1.0
 40
1.0
 40
1.0
 10
526.0173634728377
 20
-119.9210508481194
 30
0.0
 10
526.0434275067425
 20
-119.9330272892274
 30
0.0
 10
526.3544683768207
 20
-120.0759507782119
 30
0.0
 10
526.7914260387954
 20
-120.5520143540948
 30
0.0
 10
527.342514680399
 20
-121.3901647106636
 30
0.0
 10
527.7147422102045
 20
-122.4558743029786
 30
0.0
 10
527.8903088983761
 20
-123.527130041603
 30
0.0
 10
527.9058395409165
 20
-124.23849418044
 30
0.0
 10
527.911118330999
 20
-124.4802834014242
 30
0.0
  0
SPLINE
  5
142
330
1F
100
AcDbEntity
  8
0
  6
Continuous
 62
     7
370
    25
100
AcDbSpline
210
0.0
220
0.0
230
1.0
 70
     8
 71
     3
 72
    22
 73
    18
 74
     0
 42
0.00000001
 43
0.00000001
 40
0.0
 40
0.0
 40
0.0
 40
0.0
 40
0.0357957841880397
 40
0.1045261594770953
 40
0.1734959821004529
 40
0.2426747877289246
 40
0.3120162477226651
 40
0.3814428720991194
 40
0.45086569406854
 40
0.5201663738648724
 40
0.5892547153370262
 40
0.6580502909886867
 40
0.726511574157609
 40
0.7947102482258873
 40
0.8628985641336306
 40
0.9317178103463534
 40
0.9999999999999999
 40
0.9999999999999999
 40
0.9999999999999999
 40
0.9999999999999999
 10
527.911118330999
 20
-124.4802834014242
 30
0.0
 10
527.905814863808
 20
-124.7298419125567
 30
0.0
 10
527.8903283737096
 20
-125.4585699827807
 30
0.0
 10
527.7149935157227
 20
-126.7605326844995
 30
0.0
 10
527.3196495314746
 20
-128.3760285251613
 30
0.0
 10
526.7325414954242
 20
-130.0235954608624
 30
0.0
 10
525.9710520167108
 20
-131.6542098477155
 30
0.0
 10
525.0542973930534
 20
-133.2226975345796
 30
0.0
 10
524.008127251675
 20
-134.6845886622952
 30
0.0
 10
522.862882204077
 20
-135.9990597168656
 30
0.0
 10
521.6529979179422
 20
-137.1300865429512
 30
0.0
 10
520.415724260694
 20
-138.0483139823631
 30
0.0
 10
519.1904390191542
 20
-138.7319329608038
 30
0.0
 10
518.0155784301492
 20
-139.1706408566891
 30
0.0
 10
516.93062595367
 20
-139.3585984798794
 30
0.0
 10
515.9605973431588
 20
-139.3266690326723
 30
0.0
 10
515.4297877075285
 20
-139.1248976497271
 30
0.0
 10
515.1654225389141
 20
-139.0244071497562
 30
0.0
  0
SPLINE
  5
143
330
1F
100
AcDbEntity
  8
0
  6
Continuous
 62
     7
370
    25
100
AcDbSpline
210
0.0
220
0.0
230
1.0
 70
     8
 71
     3
 72
    13
 73
     9
 74
     0
 42
0.00000001
 43
0.00000001
 40
0.0
 40
0.0
 40
0.0
 40
0.0
 40
0.0213876440744196
 40
0.2552341454925037
 40
0.4603303484884106
 40
0.6784187615830873
 40
0.8906960965911539
 40
1.0
 40
1.0
 40
1.0
 40
1.0
 10
421.7191132478106
 20
-300.5709188481935
 30
0.0
 10
421.7451772817155
 20
-300.5828952893016
 30
0.0
 10
422.0562181517937
 20
-300.725818778286
 30
0.0
 10
422.4931758137683
 20
-301.2018823541691
 30
0.0
 10
423.0442644553718
 20
-302.0400327107378
 30
0.0
 10
423.4164919851775
 20
-303.1057423030527
 30
0.0
 10
423.5920586733491
 20
-304.1769980416772
 30
0.0
 10
423.6075893158894
 20
-304.8883621805142
 30
0.0
 10
423.612868105972
 20
-305.1301514014983
 30
0.0
  0
SPLINE
  5
144
330
1F
100
AcDbEntity
  8
0
  6
Continuous
 62
     7
370
    25
100
AcDbSpline
210
0.0
220
0.0
230
1.0
 70
     8
 71
     3
 72
    22
 73
    18
 74
     0
 42
0.00000001
 43
0.00000001
 40
0.0
 40
0.0
 40
0.0
 40
0.0
 40
0.0357957841880395
 40
0.1045261594770749
 40
0.1734959821004358
 40
0.2426747877289111
 40
0.3120162477226492
 40
0.3814428720991022
 40
0.4508656940685279
 40
0.5201663738648585
 40
0.58925471533701
 40
0.6580502909886771
 40
0.7265115741575928
 40
0.7947102482258751
 40
0.862898564133619
 40
0.9317178103463417
 40
1.0
 40
1.0
 40
1.0
 40
1.0
 10
423.612868105972
 20
-305.1301514014983
 30
0.0
 10
423.607564638781
 20
-305.3797099126308
 30
0.0
 10
423.5920781486826
 20
-306.1084379828548
 30
0.0
 10
423.4167432906956
 20
-307.4104006845733
 30
0.0
 10
423.0213993064477
 20
-309.0258965252351
 30
0.0
 10
422.4342912703974
 20
-310.6734634609363
 30
0.0
 10
421.6728017916839
 20
-312.3040778477894
 30
0.0
 10
420.7560471680264
 20
-313.8725655346536
 30
0.0
 10
419.7098770266481
 20
-315.3344566623692
 30
0.0
 10
418.5646319790499
 20
-316.6489277169397
 30
0.0
 10
417.3547476929153
 20
-317.7799545430252
 30
0.0
 10
416.117474035667
 20
-318.6981819824372
 30
0.0
 10
414.892188794127
 20
-319.3818009608779
 30
0.0
 10
413.7173282051221
 20
-319.8205088567633
 30
0.0
 10
412.6323757286428
 20
-320.0084664799535
 30
0.0
 10
411.6623471181316
 20
-319.9765370327464
 30
0.0
 10
411.1315374825012
 20
-319.7747656498012
 30
0.0
 10
410.8671723138868
 20
-319.6742751498302
 30
0.0
  0
SPLINE
  5
145
330
1F
100
AcDbEntity
  8
0
  6
Continuous
 62
     7
370
    25
100
AcDbSpline
210
0.0
220
0.0
230
1.0
 70
     8
 71
     3
 72
    13
 73
     9
 74
     0
 42
0.00000001
 43
0.00000001
 40
0.0
 40
0.0
 40
0.0
 40
0.0
 40
0.0213876440744973
 40
0.2552341454926043
 40
0.4603303484885342
 40
0.6784187615832141
 40
0.8906960965912893
 40
1.0
 40
1.0
 40
1.0
 40
1.0
 10
452.2673634728331
 20
-197.7720114505762
 30
0.0
 10
452.2934275067382
 20
-197.7839878916844
 30
0.0
 10
452.6044683768164
 20
-197.926911380669
 30
0.0
 10
453.0414260387911
 20
-198.4029749565521
 30
0.0
 10
453.5925146803946
 20
-199.241125313121
 30
0.0
 10
453.9647422102
 20
-200.3068349054361
 30
0.0
 10
454.1403088983715
 20
-201.3780906440604
 30
0.0
 10
454.1558395409118
 20
-202.089454782897
 30
0.0
 10
454.1611183309944
 20
-202.3312440038809
 30
0.0
  0
SPLINE
  5
146
330
1F
100
AcDbEntity
  8
0
  6
Continuous
 62
     7
370
    25
100
AcDbSpline
210
0.0
220
0.0
230
1.0
 70
     8
 71
     3
 72
    22
 73
    18
 74
     0
 42
0.00000001
 43
0.00000001
 40
0.0
 40
0.0
 40
0.0
 40
0.0
 40
0.0357957841880394
 40
0.1045261594770979
 40
0.1734959821004534
 40
0.242674787728926
 40
0.3120162477226607
 40
0.3814428720991155
 40
0.4508656940685337
 40
0.5201663738648661
 40
0.5892547153370151
 40
0.6580502909886848
 40
0.7265115741575999
 40
0.7947102482258808
 40
0.8628985641336266
 40
0.9317178103463438
 40
1.0
 40
1.0
 40
1.0
 40
1.0
 10
454.1611183309944
 20
-202.3312440038809
 30
0.0
 10
454.1558148638034
 20
-202.5808025150135
 30
0.0
 10
454.140328373705
 20
-203.3095305852375
 30
0.0
 10
453.964993515718
 20
-204.6114932869563
 30
0.0
 10
453.56964953147
 20
-206.2269891276181
 30
0.0
 10
452.9825414954195
 20
-207.8745560633193
 30
0.0
 10
452.2210520167061
 20
-209.5051704501723
 30
0.0
 10
451.3042973930487
 20
-211.0736581370365
 30
0.0
 10
450.2581272516703
 20
-212.5355492647521
 30
0.0
 10
449.1128822040723
 20
-213.8500203193225
 30
0.0
 10
447.9029979179376
 20
-214.981047145408
 30
0.0
 10
446.6657242606892
 20
-215.8992745848199
 30
0.0
 10
445.4404390191493
 20
-216.5828935632606
 30
0.0
 10
444.2655784301444
 20
-217.021601459146
 30
0.0
 10
443.1806259536651
 20
-217.2095590823361
 30
0.0
 10
442.2105973431539
 20
-217.1776296351291
 30
0.0
 10
441.6797877075236
 20
-216.9758582521838
 30
0.0
 10
441.4154225389091
 20
-216.8753677522128
 30
0.0
  0
LWPOLYLINE
  5
147
330
1F
100
AcDbEntity
  8
0
  6
Continuous
 62
     7
370
    25
100
AcDbPolyline
 90
      143
 70
   128
 43
0.0
 10
639.2197761961
 20
-180.4238123206
 10
639.1028117414
 20
-174.3873362118
 10
638.7521473408
 20
-168.4977210733
 10
638.1684694362
 20
-162.7664961034
 10
637.3529206047
 20
-157.204880444
 10
636.3070973213
 20
-151.823761219
 10
635.0330468342
 20
-146.633672222
 10
633.533263157
 20
-141.6447732959
 10
631.8106821868
 20
-136.8668304446
 10
629.8686759568
 20
-132.3091967157
 10
627.7110460351
 20
-127.9807938911
 10
625.3420160839
 20
-123.8900950228
 10
622.7662235905
 20
-120.0451078457
 10
619.9887107895
 20
-116.4533591029
 10
617.0149147928
 20
-113.1218798112
 10
613.8506569458
 20
-110.0571914978
 10
610.5021314316
 20
-107.2652934339
 10
606.9758931462
 20
-104.7516508912
 10
603.2788448668
 20
-102.5211844429
 10
599.4182237388
 20
-100.5782603318
 10
595.4015871095
 20
-98.9266819232
 10
591.2367977337
 20
-97.5696822594
 10
586.9320083821
 20
-96.5099177308
 10
582.4956458822
 20
-95.7494628764
 10
577.9363946217
 20
-95.2898063222
 10
573.2631795491
 20
-95.1318478675
 10
568.4851487025
 20
-95.2758967234
 10
563.6116553015
 20
-95.7216709076
 10
558.6522394384
 20
-96.468297796
 10
553.6166094026
 20
-97.5143158316
 10
548.5146226763
 20
-98.8576773848
 10
543.3562666382
 20
-100.4957527624
 10
538.1516390125
 20
-102.4253353549
 10
532.9109281021
 20
-104.6426479138
 10
527.6443928447
 20
-107.1433499455
 10
522.3623427305
 20
-109.9225462084
 10
517.0751176206
 20
-112.9747962954
 10
511.7930675064
 20
-116.2941252836
 10
506.5265322491
 20
-119.8740354305
 10
501.2858213387
 20
-123.707518894
 10
496.0811937129
 20
-127.7870714501
 10
490.9228376748
 20
-132.1047071832
 10
485.8208509486
 20
-136.6519741186
 10
480.7852209128
 20
-141.4199707676
 10
475.8258050496
 20
-146.399363553
 10
470.9523116486
 20
-151.5804050795
 10
466.174280802
 20
-156.952953215
 10
461.5010657295
 20
-162.5064909443
 10
456.941814469
 20
-168.2301469565
 10
452.505451969
 20
-174.1127169261
 10
448.2006626174
 20
-180.1426854462
 10
444.0358732416
 20
-186.3082485702
 10
440.0192366123
 20
-192.5973369188
 10
436.1586154844
 20
-198.9976393062
 10
432.4615672049
 20
-205.49662684
 10
428.9353289196
 20
-212.0815774467
 10
425.5868034054
 20
-218.7396007765
 10
422.4225455583
 20
-225.4576634359
 10
419.4487495616
 20
-232.2226145019
 10
416.6712367607
 20
-239.0212112649
 10
414.0954442672
 20
-245.8401451527
 10
411.726414316
 20
-252.6660677819
 10
409.5687843944
 20
-259.4856170884
 10
407.6267781643
 20
-266.2854434842
 10
405.9041971941
 20
-273.0522359898
 10
404.404413517
 20
-279.7727482911
 10
403.1303630299
 20
-286.4338246697
 10
402.0845397465
 20
-293.0224257557
 10
401.2689909149
 20
-299.5256540532
 10
400.6853130104
 20
-305.9307791874
 10
400.3346486097
 20
-312.2252628249
 10
400.217684155
 20
-318.3967832186
 10
400.3346486097
 20
-324.4332593274
 10
400.6853130104
 20
-330.3228744659
 10
401.2689909149
 20
-336.0540994358
 10
402.0845397465
 20
-341.6157150952
 10
403.1303630299
 20
-346.9968343202
 10
404.404413517
 20
-352.1869233172
 10
405.9041971941
 20
-357.1758222433
 10
407.6267781643
 20
-361.9537650946
 10
409.5687843944
 20
-366.5113988235
 10
411.726414316
 20
-370.8398016481
 10
414.0954442672
 20
-374.9305005164
 10
416.6712367607
 20
-378.7754876935
 10
419.4487495616
 20
-382.3672364363
 10
422.4225455583
 20
-385.698715728
 10
425.5868034054
 20
-388.7634040414
 10
428.9353289196
 20
-391.5553021053
 10
432.4615672049
 20
-394.068944648
 10
436.1586154844
 20
-396.2994110963
 10
440.0192366123
 20
-398.2423352074
 10
444.0358732416
 20
-399.893913616
 10
448.2006626174
 20
-401.2509132798
 10
452.505451969
 20
-402.3106778084
 10
456.941814469
 20
-403.0711326628
 10
461.5010657295
 20
-403.530789217
 10
466.174280802
 20
-403.6887476717
 10
470.9523116486
 20
-403.5446988158
 10
475.8258050496
 20
-403.0989246316
 10
480.7852209128
 20
-402.3522977432
 10
485.8208509486
 20
-401.3062797076
 10
490.9228376748
 20
-399.9629181544
 10
496.0811937129
 20
-398.3248427768
 10
501.2858213387
 20
-396.3952601843
 10
506.5265322491
 20
-394.1779476254
 10
511.7930675064
 20
-391.6772455937
 10
517.0751176206
 20
-388.8980493308
 10
522.3623427305
 20
-385.8457992438
 10
527.6443928447
 20
-382.5264702556
 10
532.9109281021
 20
-378.9465601087
 10
538.1516390125
 20
-375.1130766452
 10
543.3562666382
 20
-371.0335240891
 10
548.5146226763
 20
-366.715888356
 10
553.6166094026
 20
-362.1686214206
 10
558.6522394384
 20
-357.4006247716
 10
563.6116553015
 20
-352.4212319862
 10
568.4851487025
 20
-347.2401904597
 10
573.2631795491
 20
-341.8676423242
 10
577.9363946217
 20
-336.3141045949
 10
582.4956458822
 20
-330.5904485827
 10
586.9320083821
 20
-324.7078786131
 10
591.2367977337
 20
-318.677910093
 10
595.4015871095
 20
-312.512346969
 10
599.4182237388
 20
-306.2232586204
 10
603.2788448668
 20
-299.822956233
 10
606.9758931462
 20
-293.3239686992
 10
610.5021314316
 20
-286.7390180925
 10
613.8506569458
 20
-280.0809947627
 10
617.0149147928
 20
-273.3629321033
 10
619.9887107895
 20
-266.5979810373
 10
622.7662235905
 20
-259.7993842742
 10
625.3420160839
 20
-252.9804503865
 10
627.7110460351
 20
-246.1545277573
 10
629.8686759568
 20
-239.3349784508
 10
631.8106821868
 20
-232.535152055
 10
633.533263157
 20
-225.7683595494
 10
635.0330468342
 20
-219.0478472481
 10
636.3070973213
 20
-212.3867708695
 10
637.3529206047
 20
-205.7981697835
 10
638.1684694362
 20
-199.294941486
 10
638.7521473408
 20
-192.8898163518
 10
639.1028117414
 20
-186.5953327143
 10
639.2197761961
 20
-180.4238123206
  0
ARC
  5
148
330
1F
100
AcDbEntity
  8
0
  6
Continuous
 62
     7
370
    25
100
AcDbCircle
 10
464.7628960181
 20
-346.2443463336
 30
0.0
 40
58.63287495480923
100
AcDbArc
 50
216.438395098
 51
263.7566188203
  0
ARC
  5
149
330
1F
100
AcDbEntity
  8
0
  6
Continuous
 62
     7
370
    25
100
AcDbCircle
 10
576.0699332544
 20
-153.4316430376
 30
0.0
 40
58.67539610596663
100
AcDbArc
 50
35.9920319255
 51
83.9296821213
  0
ARC
  5
14A
330
1F
100
AcDbEntity
  8
0
  6
Continuous
 62
     7
370
    25
100
AcDbCircle
 10
592.9320381589
 20
-164.4422338989
 30
0.0
 40
59.81059142597375
100
AcDbArc
 50
35.9109497709
 51
59.7127974323
  0
ARC
  5
14B
330
1F
100
AcDbEntity
  8
0
  6
Continuous
 62
     7
370
    25
100
AcDbCircle
 10
482.799326319
 20
-355.1168444369
 30
0.0
 40
59.99580439841381
100
AcDbArc
 50
240.340153203
 51
263.3447696417
  0
LWPOLYLINE
  5
14C
330
1F
100
AcDbEntity
  8
0
  6
Continuous
 62
     7
370
    25
100
AcDbPolyline
 90
       38
 70
   128
 43
0.0
 10
423.9057613248
 20
-304.7219473456
 10
423.7837082768
 20
-306.4483598748
 10
423.4210603767
 20
-308.2660261086
 10
422.8282503444
 20
-310.1226550987
 10
422.0223322452
 20
-311.9648350095
 10
421.0264908754
 20
-313.7395696789
 10
419.8693747781
 20
-315.3958032218
 10
418.5842720767
 20
-316.8858888148
 10
417.2081528362
 20
-318.1669594081
 10
415.7806055015
 20
-319.2021609334
 10
414.3426980105
 20
-319.9617125274
 10
412.9357963435
 20
-320.4237632739
 10
411.6003745
 20
-320.575020814
 10
410.3748501351
 20
-320.4111337437
 10
409.2944793535
 20
-319.9368167956
 10
408.3903424554
 20
-319.1657152048
 10
407.6884498134
 20
-318.1200121601
 10
407.2089936007
 20
-316.8297906341
 10
406.9657668997
 20
-315.3321679511
 10
406.9657668997
 20
-313.6702279889
 10
407.2089936007
 20
-311.8917817344
 10
407.6884498134
 20
-310.0479918483
 10
408.3903424554
 20
-308.1919008086
 10
409.2944793535
 20
-306.3769049752
 10
410.3748501351
 20
-304.6552184737
 10
411.6003745
 20
-303.07637109
 10
412.9357963435
 20
-301.6857833887
 10
414.3426980105
 20
-300.5234600463
 10
415.7806055015
 20
-299.6228389889
 10
417.2081528362
 20
-299.0098294447
 10
418.5842720767
 20
-298.7020665822
 10
419.8693747781
 20
-298.7084041786
 10
421.0264908754
 20
-299.0286599127
 10
422.0223322452
 20
-299.6536206102
 10
422.8282503444
 20
-300.5653072897
 10
423.4210603767
 20
-301.7374923853
 10
423.7837082768
 20
-303.136454266
 10
423.9057613248
 20
-304.7219473456
  0
LWPOLYLINE
  5
14D
330
1F
100
AcDbEntity
  8
0
  6
Continuous
 62
     7
370
    25
100
AcDbPolyline
 90
       38
 70
   128
 43
0.0
 10
601.9540115498
 20
-287.1006582494
 10
601.8319585018
 20
-288.8270707786
 10
601.4693106017
 20
-290.6447370124
 10
600.8765005694
 20
-292.5013660025
 10
600.0705824702
 20
-294.3435459132
 10
599.0747411004
 20
-296.1182805827
 10
597.9176250031
 20
-297.7745141256
 10
596.6325223017
 20
-299.2645997185
 10
595.2564030612
 20
-300.5456703119
 10
593.8288557265
 20
-301.5808718371
 10
592.3909482355
 20
-302.3404234312
 10
590.9840465685
 20
-302.8024741777
 10
589.648624725
 20
-302.9537317178
 10
588.4231003602
 20
-302.7898446475
 10
587.3427295785
 20
-302.3155276994
 10
586.4385926805
 20
-301.5444261086
 10
585.7367000384
 20
-300.4987230639
 10
585.2572438257
 20
-299.2085015379
 10
585.0140171247
 20
-297.7108788549
 10
585.0140171247
 20
-296.0489388927
 10
585.2572438257
 20
-294.2704926382
 10
585.7367000384
 20
-292.4267027521
 10
586.4385926805
 20
-290.5706117124
 10
587.3427295785
 20
-288.755615879
 10
588.4231003602
 20
-287.0339293775
 10
589.648624725
 20
-285.4550819938
 10
590.9840465685
 20
-284.0644942925
 10
592.3909482355
 20
-282.90217095
 10
593.8288557265
 20
-282.0015498927
 10
595.2564030612
 20
-281.3885403485
 10
596.6325223017
 20
-281.080777486
 10
597.9176250031
 20
-281.0871150824
 10
599.0747411004
 20
-281.4073708165
 10
600.0705824702
 20
-282.032331514
 10
600.8765005694
 20
-282.9440181935
 10
601.4693106017
 20
-284.1162032891
 10
601.8319585018
 20
-285.5151651698
 10
601.9540115498
 20
-287.1006582494
  0
LWPOLYLINE
  5
14E
330
1F
100
AcDbEntity
  8
0
  6
Continuous
 62
     7
370
    25
100
AcDbPolyline
 90
       38
 70
   128
 43
0.0
 10
601.9540115498
 20
-116.7731024154
 10
601.8319585018
 20
-118.4995149446
 10
601.4693106017
 20
-120.3171811784
 10
600.8765005694
 20
-122.1738101685
 10
600.0705824702
 20
-124.0159900792
 10
599.0747411004
 20
-125.7907247487
 10
597.9176250031
 20
-127.4469582916
 10
596.6325223017
 20
-128.9370438845
 10
595.2564030612
 20
-130.2181144779
 10
593.8288557266
 20
-131.2533160031
 10
592.3909482355
 20
-132.0128675972
 10
590.9840465685
 20
-132.4749183437
 10
589.6486247251
 20
-132.6261758838
 10
588.4231003602
 20
-132.4622888135
 10
587.3427295785
 20
-131.9879718654
 10
586.4385926805
 20
-131.2168702746
 10
585.7367000384
 20
-130.1711672299
 10
585.2572438257
 20
-128.8809457039
 10
585.0140171247
 20
-127.3833230209
 10
585.0140171247
 20
-125.7213830587
 10
585.2572438257
 20
-123.9429368042
 10
585.7367000384
 20
-122.0991469181
 10
586.4385926805
 20
-120.2430558784
 10
587.3427295785
 20
-118.428060045
 10
588.4231003602
 20
-116.7063735435
 10
589.6486247251
 20
-115.1275261597
 10
590.9840465685
 20
-113.7369384585
 10
592.3909482355
 20
-112.574615116
 10
593.8288557266
 20
-111.6739940587
 10
595.2564030612
 20
-111.0609845145
 10
596.6325223017
 20
-110.753221652
 10
597.9176250031
 20
-110.7595592484
 10
599.0747411004
 20
-111.0798149825
 10
600.0705824702
 20
-111.70477568
 10
600.8765005694
 20
-112.6164623595
 10
601.4693106017
 20
-113.7886474551
 10
601.8319585018
 20
-115.1876093358
 10
601.9540115498
 20
-116.7731024154
  0
LWPOLYLINE
  5
14F
330
1F
100
AcDbEntity
  8
0
  6
Continuous
 62
     7
370
    25
100
AcDbPolyline
 90
       38
 70
   128
 43
0.0
 10
528.2040115498
 20
-124.0720793455
 10
528.0819585018
 20
-125.7984918748
 10
527.7193106017
 20
-127.6161581085
 10
527.1265005694
 20
-129.4727870986
 10
526.3205824702
 20
-131.3149670094
 10
525.3247411004
 20
-133.0897016788
 10
524.1676250031
 20
-134.7459352218
 10
522.8825223017
 20
-136.2360208147
 10
521.5064030612
 20
-137.517091408
 10
520.0788557266
 20
-138.5522929333
 10
518.6409482355
 20
-139.3118445274
 10
517.2340465685
 20
-139.7738952738
 10
515.8986247251
 20
-139.9251528139
 10
514.6731003602
 20
-139.7612657436
 10
513.5927295785
 20
-139.2869487956
 10
512.6885926805
 20
-138.5158472047
 10
511.9867000384
 20
-137.47014416
 10
511.5072438257
 20
-136.179922634
 10
511.2640171247
 20
-134.682299951
 10
511.2640171247
 20
-133.0203599888
 10
511.5072438257
 20
-131.2419137343
 10
511.9867000384
 20
-129.3981238482
 10
512.6885926805
 20
-127.5420328085
 10
513.5927295785
 20
-125.7270369752
 10
514.6731003602
 20
-124.0053504736
 10
515.8986247251
 20
-122.4265030899
 10
517.2340465685
 20
-121.0359153886
 10
518.6409482355
 20
-119.8735920462
 10
520.0788557266
 20
-118.9729709888
 10
521.5064030612
 20
-118.3599614447
 10
522.8825223017
 20
-118.0521985822
 10
524.1676250031
 20
-118.0585361785
 10
525.3247411004
 20
-118.3787919126
 10
526.3205824702
 20
-119.0037526102
 10
527.1265005694
 20
-119.9154392896
 10
527.7193106017
 20
-121.0876243852
 10
528.0819585018
 20
-122.4865862659
 10
528.2040115498
 20
-124.0720793455
  0
LWPOLYLINE
  5
150
330
1F
100
AcDbEntity
  8
0
  6
Continuous
 62
     7
370
    25
100
AcDbPolyline
 90
      120
 70
   128
 43
0.0
 10
603.5108837462
 20
-201.0381171441
 10
603.3941118658
 20
-206.2120752538
 10
603.0441216889
 20
-211.5064345575
 10
602.4618887009
 20
-216.9064387263
 10
601.6490356895
 20
-222.3970369801
 10
600.6078282219
 20
-227.9629260367
 10
599.34116833
 20
-233.588592765
 10
597.8525864221
 20
-239.2583574229
 10
596.1462314431
 20
-244.9564173594
 10
594.2268593102
 20
-250.6668910595
 10
592.0998196578
 20
-256.3738624086
 10
589.771040927
 20
-262.0614250542
 10
587.2470138418
 20
-267.7137267389
 10
584.5347733183
 20
-273.3150134843
 10
581.6418788574
 20
-278.8496734995
 10
578.5763934747
 20
-284.3022806943
 10
575.3468612279
 20
-289.6576376746
 10
571.9622834026
 20
-294.9008181
 10
568.4320934242
 20
-300.0172082862
 10
564.7661305654
 20
-304.9925479361
 10
560.974612522
 20
-309.8129698857
 10
557.0681069351
 20
-314.4650387544
 10
553.0575019363
 20
-318.9357883921
 10
548.953975801
 20
-323.2127580174
 10
544.7689657926
 20
-327.2840269491
 10
540.5141362846
 20
-331.1382478304
 10
536.20134625
 20
-334.7646782564
 10
531.8426162082
 20
-338.153210715
 10
527.4500947214
 20
-341.2944007586
 10
523.036024535
 20
-344.1794933272
 10
518.6127084543
 20
-346.8004471502
 10
514.1924750544
 20
-349.1499571593
 10
509.7876443187
 20
-351.2214748486
 10
505.4104933006
 20
-353.009226527
 10
501.0732219048
 20
-354.5082294096
 10
496.7879188849
 20
-355.7143055068
 10
492.5665281488
 20
-356.624093268
 10
488.4208154696
 20
-357.2350569517
 10
484.3623356923
 20
-357.5454936923
 10
480.4024005278
 20
-357.5545382472
 10
476.5520470257
 20
-357.2621654074
 10
472.8220068118
 20
-356.6691900685
 10
469.2226761771
 20
-355.7772649592
 10
465.7640871018
 20
-354.5888760346
 10
462.4558792938
 20
-353.107335548
 10
459.3072733217
 20
-351.3367728182
 10
456.3270449151
 20
-349.2821227213
 10
453.5235005051
 20
-346.9491119355
 10
450.9044540727
 20
-344.3442429804
 10
448.4772053702
 20
-341.4747760929
 10
446.2485195749
 20
-338.348708992
 10
444.224608434
 20
-334.9747545872
 10
442.4111129507
 20
-331.3623166947
 10
440.8130876623
 20
-327.5214638268
 10
439.4349865519
 20
-323.4629011293
 10
438.2806506344
 20
-319.1979405444
 10
437.3532972511
 20
-314.7384692822
 10
436.6555111021
 20
-310.0969166889
 10
436.1892370427
 20
-305.2862196042
 10
435.9557746622
 20
-300.3197863035
 10
435.9557746622
 20
-295.2114591273
 10
436.1892370427
 20
-289.9754758997
 10
436.6555111021
 20
-284.626430245
 10
437.3532972511
 20
-279.1792309128
 10
438.2806506344
 20
-273.6490602247
 10
439.4349865519
 20
-268.0513317582
 10
440.8130876623
 20
-262.4016473866
 10
442.4111129507
 20
-256.7157537935
 10
444.224608434
 20
-251.0094985843
 10
446.2485195749
 20
-245.2987861155
 10
448.4772053702
 20
-239.5995331671
 10
450.9044540727
 20
-233.9276245793
 10
453.5235005051
 20
-228.2988689786
 10
456.3270449151
 20
-222.7289547164
 10
459.3072733217
 20
-217.2334061428
 10
462.4558792938
 20
-211.8275403373
 10
465.7640871018
 20
-206.5264244175
 10
469.2226761771
 20
-201.3448335442
 10
472.8220068118
 20
-196.2972097407
 10
476.5520470257
 20
-191.3976216396
 10
480.4024005278
 20
-186.6597252719
 10
484.3623356923
 20
-182.0967260045
 10
488.4208154696
 20
-177.7213417348
 10
492.5665281488
 20
-173.5457674435
 10
496.7879188849
 20
-169.581641205
 10
501.0732219048
 20
-165.8400117501
 10
505.4104933006
 20
-162.3313076714
 10
509.7876443187
 20
-159.0653083562
 10
514.1924750544
 20
-156.0511167305
 10
518.6127084543
 20
-153.297133887
 10
523.036024535
 20
-150.8110356699
 10
527.4500947214
 20
-148.5997512806
 10
531.8426162082
 20
-146.6694439655
 10
536.2013462501
 20
-145.0254938372
 10
540.5141362847
 20
-143.6724828796
 10
544.7689657926
 20
-142.6141821769
 10
548.953975801
 20
-141.853541403
 10
553.0575019363
 20
-141.3926806002
 10
557.0681069351
 20
-141.2328842701
 10
560.9746125221
 20
-141.3745977938
 10
564.7661305654
 20
-141.8174261903
 10
568.4320934242
 20
-142.5601352174
 10
571.9622834026
 20
-143.6006548118
 10
575.3468612279
 20
-144.9360848589
 10
578.5763934747
 20
-146.5627032755
 10
581.6418788574
 20
-148.4759763844
 10
584.5347733183
 20
-150.6705715503
 10
587.2470138418
 20
-153.1403720428
 10
589.771040927
 20
-155.878494085
 10
592.0998196578
 20
-158.8773060397
 10
594.2268593102
 20
-162.12844968
 10
596.1462314431
 20
-165.6228634855
 10
597.8525864221
 20
-169.3508078982
 10
599.34116833
 20
-173.3018924685
 10
600.6078282219
 20
-177.4651048149
 10
601.6490356895
 20
-181.8288413179
 10
602.4618887009
 20
-186.3809394612
 10
603.0441216889
 20
-191.1087117309
 10
603.3941118658
 20
-195.9989809777
 10
603.5108837462
 20
-201.0381171441
  0
LWPOLYLINE
  5
151
330
1F
100
AcDbEntity
  8
0
  6
Continuous
 62
     7
370
    25
100
AcDbPolyline
 90
       38
 70
   128
 43
0.0
 10
528.2040115498
 20
-364.9516188518
 10
528.0819585018
 20
-366.6780313811
 10
527.7193106017
 20
-368.4956976148
 10
527.1265005694
 20
-370.3523266049
 10
526.3205824702
 20
-372.1945065157
 10
525.3247411004
 20
-373.9692411851
 10
524.1676250031
 20
-375.6254747281
 10
522.8825223017
 20
-377.115560321
 10
521.5064030612
 20
-378.3966309143
 10
520.0788557265
 20
-379.4318324396
 10
518.6409482355
 20
-380.1913840337
 10
517.2340465685
 20
-380.6534347801
 10
515.898624725
 20
-380.8046923202
 10
514.6731003602
 20
-380.6408052499
 10
513.5927295785
 20
-380.1664883019
 10
512.6885926805
 20
-379.3953867111
 10
511.9867000384
 20
-378.3496836663
 10
511.5072438257
 20
-377.0594621403
 10
511.2640171247
 20
-375.5618394573
 10
511.2640171247
 20
-373.8998994952
 10
511.5072438257
 20
-372.1214532406
 10
511.9867000384
 20
-370.2776633545
 10
512.6885926805
 20
-368.4215723149
 10
513.5927295785
 20
-366.6065764815
 10
514.6731003602
 20
-364.8848899799
 10
515.898624725
 20
-363.3060425962
 10
517.2340465685
 20
-361.915454895
 10
518.6409482355
 20
-360.7531315525
 10
520.0788557265
 20
-359.8525104951
 10
521.5064030612
 20
-359.239500951
 10
522.8825223017
 20
-358.9317380885
 10
524.1676250031
 20
-358.9380756848
 10
525.3247411004
 20
-359.258331419
 10
526.3205824702
 20
-359.8832921165
 10
527.1265005694
 20
-360.7949787959
 10
527.7193106017
 20
-361.9671638915
 10
528.0819585018
 20
-363.3661257722
 10
528.2040115498
 20
-364.9516188518
  0
LWPOLYLINE
  5
152
330
1F
100
AcDbEntity
  8
0
  6
Continuous
 62
     7
370
    25
100
AcDbPolyline
 90
       38
 70
   128
 43
0.0
 10
632.5022617748
 20
-184.3017508518
 10
632.3802087268
 20
-186.028163381
 10
632.0175608267
 20
-187.8458296148
 10
631.4247507944
 20
-189.7024586049
 10
630.6188326952
 20
-191.5446385156
 10
629.6229913254
 20
-193.3193731851
 10
628.4658752281
 20
-194.975606728
 10
627.1807725268
 20
-196.4656923209
 10
625.8046532862
 20
-197.7467629143
 10
624.3771059516
 20
-198.7819644395
 10
622.9391984605
 20
-199.5415160336
 10
621.5322967935
 20
-200.0035667801
 10
620.1968749501
 20
-200.1548243201
 10
618.9713505852
 20
-199.9909372499
 10
617.8909798035
 20
-199.5166203018
 10
616.9868429055
 20
-198.745518711
 10
616.2849502634
 20
-197.6998156662
 10
615.8054940507
 20
-196.4095941403
 10
615.5622673497
 20
-194.9119714573
 10
615.5622673497
 20
-193.2500314951
 10
615.8054940507
 20
-191.4715852406
 10
616.2849502634
 20
-189.6277953545
 10
616.9868429055
 20
-187.7717043148
 10
617.8909798035
 20
-185.9567084814
 10
618.9713505852
 20
-184.2350219798
 10
620.1968749501
 20
-182.6561745961
 10
621.5322967935
 20
-181.2655868949
 10
622.9391984605
 20
-180.1032635524
 10
624.3771059516
 20
-179.2026424951
 10
625.8046532862
 20
-178.5896329509
 10
627.1807725268
 20
-178.2818700884
 10
628.4658752281
 20
-178.2882076848
 10
629.6229913254
 20
-178.6084634189
 10
630.6188326952
 20
-179.2334241164
 10
631.4247507944
 20
-180.1451107959
 10
632.0175608267
 20
-181.3172958915
 10
632.3802087268
 20
-182.7162577722
 10
632.5022617748
 20
-184.3017508518
  0
LWPOLYLINE
  5
153
330
1F
100
AcDbEntity
  8
0
  6
Continuous
 62
     7
370
    25
100
AcDbPolyline
 90
       38
 70
   128
 43
0.0
 10
454.4540115498
 20
-372.250595782
 10
454.3319585018
 20
-373.9770083112
 10
453.9693106017
 20
-375.794674545
 10
453.3765005694
 20
-377.6513035351
 10
452.5705824702
 20
-379.4934834458
 10
451.5747411004
 20
-381.2682181153
 10
450.4176250031
 20
-382.9244516582
 10
449.1325223017
 20
-384.4145372511
 10
447.7564030612
 20
-385.6956078445
 10
446.3288557265
 20
-386.7308093698
 10
444.8909482355
 20
-387.4903609638
 10
443.4840465685
 20
-387.9524117103
 10
442.148624725
 20
-388.1036692504
 10
440.9231003602
 20
-387.9397821801
 10
439.8427295785
 20
-387.465465232
 10
438.9385926805
 20
-386.6943636412
 10
438.2367000384
 20
-385.6486605965
 10
437.7572438257
 20
-384.3584390705
 10
437.5140171247
 20
-382.8608163875
 10
437.5140171247
 20
-381.1988764253
 10
437.7572438257
 20
-379.4204301708
 10
438.2367000384
 20
-377.5766402847
 10
438.9385926805
 20
-375.720549245
 10
439.8427295785
 20
-373.9055534116
 10
440.9231003602
 20
-372.1838669101
 10
442.148624725
 20
-370.6050195264
 10
443.4840465685
 20
-369.2144318251
 10
444.8909482355
 20
-368.0521084826
 10
446.3288557265
 20
-367.1514874253
 10
447.7564030612
 20
-366.5384778811
 10
449.1325223017
 20
-366.2307150186
 10
450.4176250031
 20
-366.237052615
 10
451.5747411004
 20
-366.5573083491
 10
452.5705824702
 20
-367.1822690466
 10
453.3765005694
 20
-368.0939557261
 10
453.9693106017
 20
-369.2661408217
 10
454.3319585018
 20
-370.6651027024
 10
454.4540115498
 20
-372.250595782
  0
LWPOLYLINE
  5
154
330
1F
100
AcDbEntity
  8
0
  6
Continuous
 62
     7
370
    25
100
AcDbPolyline
 90
       38
 70
   128
 43
0.0
 10
454.4540115498
 20
-201.923039948
 10
454.3319585018
 20
-203.6494524772
 10
453.9693106017
 20
-205.467118711
 10
453.3765005694
 20
-207.3237477011
 10
452.5705824702
 20
-209.1659276118
 10
451.5747411004
 20
-210.9406622813
 10
450.4176250031
 20
-212.5968958242
 10
449.1325223017
 20
-214.0869814171
 10
447.7564030612
 20
-215.3680520105
 10
446.3288557265
 20
-216.4032535357
 10
444.8909482355
 20
-217.1628051298
 10
443.4840465685
 20
-217.6248558763
 10
442.1486247251
 20
-217.7761134164
 10
440.9231003602
 20
-217.6122263461
 10
439.8427295785
 20
-217.137909398
 10
438.9385926805
 20
-216.3668078072
 10
438.2367000384
 20
-215.3211047625
 10
437.7572438257
 20
-214.0308832365
 10
437.5140171247
 20
-212.5332605535
 10
437.5140171247
 20
-210.8713205913
 10
437.7572438257
 20
-209.0928743368
 10
438.2367000384
 20
-207.2490844507
 10
438.9385926805
 20
-205.392993411
 10
439.8427295785
 20
-203.5779975776
 10
440.9231003602
 20
-201.8563110761
 10
442.1486247251
 20
-200.2774636924
 10
443.4840465685
 20
-198.8868759911
 10
444.8909482355
 20
-197.7245526486
 10
446.3288557265
 20
-196.8239315913
 10
447.7564030612
 20
-196.2109220471
 10
449.1325223017
 20
-195.9031591846
 10
450.4176250031
 20
-195.909496781
 10
451.5747411004
 20
-196.2297525151
 10
452.5705824702
 20
-196.8547132126
 10
453.3765005694
 20
-197.7663998921
 10
453.9693106017
 20
-198.9385849877
 10
454.3319585018
 20
-200.3375468684
 10
454.4540115498
 20
-201.923039948
  0
ARC
  5
155
330
1F
100
AcDbEntity
  8
0
  6
Continuous
 62
     7
370
    25
100
AcDbCircle
 10
559.1167086647
 20
-182.7904043905
 30
0.0
 40
40.09758668492192
100
AcDbArc
 50
40.6256333836
 51
79.9514252782
  0
ARC
  5
156
330
1F
100
AcDbEntity
  8
0
  6
Continuous
 62
     7
370
    25
100
AcDbCircle
 10
481.8845041248
 20
-316.5613051258
 30
0.0
 40
40.41056817688568
100
AcDbArc
 50
216.911756487
 51
261.6296299876
  0
LWPOLYLINE
  5
157
330
1F
100
AcDbEntity
  8
0
  6
Continuous
 62
     7
370
    25
100
AcDbPolyline
 90
        3
 70
   128
 43
0.0
 10
471.187981777
 20
-355.5237307535
 10
468.8675805292
 20
-353.0302506795
 10
468.1287278099
 20
-352.1476119489
  0
ARC
  5
158
330
1F
100
AcDbEntity
  8
0
  6
Continuous
 62
     7
370
    25
100
AcDbCircle
 10
575.9212698192
 20
-196.4328192361
 30
0.0
 40
43.63536376001414
100
AcDbArc
 50
74.8280662656
 51
82.116673507
  0
LINE
  5
159
330
1F
100
AcDbEntity
  8
0
  6
Continuous
 62
     7
370
    25
100
AcDbLine
 10
599.7963892519
 20
-282.9537679807
 30
0.0
 11
599.6753899862
 21
-282.88077349
 31
0.0
  0
LINE
  5
15A
330
1F
100
AcDbEntity
  8
0
  6
Continuous
 62
     7
370
    25
100
AcDbLine
 10
588.6762839273
 20
-301.9338484624
 30
0.0
 11
588.9652028075
 21
-302.0839695921
 31
0.0
  0
LINE
  5
15B
330
1F
100
AcDbEntity
  8
0
  6
Continuous
 62
     7
370
    25
100
AcDbLine
 10
630.3446394769
 20
-180.1548605831
 30
0.0
 11
630.2236402113
 21
-180.0818660924
 31
0.0
  0
LINE
  5
15C
330
1F
100
AcDbEntity
  8
0
  6
Continuous
 62
     7
370
    25
100
AcDbLine
 10
619.2245341523
 20
-199.1349410648
 30
0.0
 11
619.5134530325
 21
-199.2850621945
 31
0.0
  0
LINE
  5
15D
330
1F
100
AcDbEntity
  8
0
  6
Continuous
 62
     7
370
    25
100
AcDbLine
 10
526.0463892519
 20
-360.8047285831
 30
0.0
 11
525.9253899862
 21
-360.7317340925
 31
0.0
  0
LINE
  5
15E
330
1F
100
AcDbEntity
  8
0
  6
Continuous
 62
     7
370
    25
100
AcDbLine
 10
514.9262839272
 20
-379.7848090649
 30
0.0
 11
515.2152028075
 21
-379.9349301945
 31
0.0
  0
LINE
  5
15F
330
1F
100
AcDbEntity
  8
0
  6
Continuous
 62
     7
370
    25
100
AcDbLine
 10
599.7963892519
 20
-112.6262121467
 30
0.0
 11
599.6753899863
 21
-112.553217656
 31
0.0
  0
LINE
  5
160
330
1F
100
AcDbEntity
  8
0
  6
Continuous
 62
     7
370
    25
100
AcDbLine
 10
588.6762839273
 20
-131.6062926284
 30
0.0
 11
588.9652028075
 21
-131.7564137581
 31
0.0
  0
LINE
  5
161
330
1F
100
AcDbEntity
  8
0
  6
Continuous
 62
     7
370
    25
100
AcDbLine
 10
452.2963892519
 20
-368.1037055133
 30
0.0
 11
452.1753899862
 21
-368.0307110226
 31
0.0
  0
LINE
  5
162
330
1F
100
AcDbEntity
  8
0
  6
Continuous
 62
     7
370
    25
100
AcDbLine
 10
441.1762839272
 20
-387.083785995
 30
0.0
 11
441.4652028075
 21
-387.2339071247
 31
0.0
  0
LINE
  5
163
330
1F
100
AcDbEntity
  8
0
  6
Continuous
 62
     7
370
    25
100
AcDbLine
 10
526.0463892519
 20
-119.9251890768
 30
0.0
 11
525.9253899863
 21
-119.8521945862
 31
0.0
  0
LINE
  5
164
330
1F
100
AcDbEntity
  8
0
  6
Continuous
 62
     7
370
    25
100
AcDbLine
 10
514.9262839273
 20
-138.9052695585
 30
0.0
 11
515.2152028075
 21
-139.0553906882
 31
0.0
  0
LINE
  5
165
330
1F
100
AcDbEntity
  8
0
  6
Continuous
 62
     7
370
    25
100
AcDbLine
 10
421.7481390269
 20
-300.5750570769
 30
0.0
 11
421.6271397612
 21
-300.5020625862
 31
0.0
  0
LINE
  5
166
330
1F
100
AcDbEntity
  8
0
  6
Continuous
 62
     7
370
    25
100
AcDbLine
 10
410.6280337022
 20
-319.5551375586
 30
0.0
 11
410.9169525825
 21
-319.7052586883
 31
0.0
  0
LINE
  5
167
330
1F
100
AcDbEntity
  8
0
  6
Continuous
 62
     7
370
    25
100
AcDbLine
 10
452.2963892519
 20
-197.7761496793
 30
0.0
 11
452.1753899863
 21
-197.7031551886
 31
0.0
  0
LINE
  5
168
330
1F
100
AcDbEntity
  8
0
  6
Continuous
 62
     7
370
    25
100
AcDbLine
 10
441.1762839273
 20
-216.756230161
 30
0.0
 11
441.4652028075
 21
-216.9063512907
 31
0.0
  0
LWPOLYLINE
  5
169
330
1F
100
AcDbEntity
  8
0
  6
Continuous
 62
     1
370
    25
100
AcDbPolyline
 90
       49
 70
   128
 43
0.0
 10
640.6339897585
 20
-180.4238123206
 10
640.5163332064
 20
-186.6318505864
 10
640.1635938685
 20
-192.9635796893
 10
639.5764622486
 20
-199.4066049722
 10
638.7560876843
 20
-205.9483139105
 10
637.7040760974
 20
-212.5759008018
 10
636.42248685
 20
-219.2763918335
 10
634.9138287132
 20
-226.0366704797
 10
633.1810549563
 20
-232.8435031777
 10
631.227557565
 20
-239.6835652326
 10
629.0571606025
 20
-246.5434669019
 10
626.6741127226
 20
-253.4097796058
 10
624.0830788534
 20
-260.2690622148
 10
621.2891310655
 20
-267.1078873611
 10
618.2977386428
 20
-273.9128677233
 10
615.1147573765
 20
-280.6706822328
 10
611.7464181018
 20
-287.3681021503
 10
608.1993145012
 20
-293.9920169618
 10
604.4803901964
 20
-300.5294600431
 10
600.5969251565
 20
-306.9676340423
 10
596.5565214465
 20
-313.2939359314
 10
592.3670883466
 20
-319.4959816775
 10
588.0368268687
 20
-325.5616304847
 10
583.574213703
 20
-331.4790085606
 10
578.9879846244
 20
-337.2365323598
 10
574.2871173917
 20
-342.8229312591
 10
569.4808141732
 20
-348.2272696203
 10
564.5784835332
 20
-353.4389681973
 10
559.589722014
 20
-358.4478248453
 10
554.5242953508
 20
-363.2440344922
 10
549.3921193539
 20
-367.8182083325
 10
544.2032404991
 20
-372.161392206
 10
538.9678162602
 20
-376.2650841264
 10
533.696095226
 20
-380.121250924
 10
528.3983970382
 20
-383.7223439712
 10
523.0850921896
 20
-387.0613139593
 10
517.766581724
 20
-390.1316246977
 10
512.4532768753
 20
-392.9272659089
 10
507.1555786875
 20
-395.4427649941
 10
501.8838576534
 20
-397.6731977456
 10
496.6484334145
 20
-399.6141979866
 10
491.4595545596
 20
-401.2619661179
 10
486.3273785627
 20
-402.6132765561
 10
481.2619518995
 20
-403.6654840475
 10
476.2731903804
 20
-404.4165288465
 10
471.3708597403
 20
-404.8649407477
 10
466.5645565218
 20
-405.0098419637
 10
461.8636892891
 20
-404.8509488436
 10
458.3864512245
 20
-404.5294643077
  0
LWPOLYLINE
  5
16A
330
1F
100
AcDbEntity
  8
0
  6
Continuous
 62
     1
370
    25
100
AcDbPolyline
 90
       14
 70
   128
 43
0.0
 10
623.5441216872
 20
-118.949712395
 10
624.0830788534
 20
-119.687837405
 10
626.6741127226
 20
-123.5555759855
 10
629.0571606025
 20
-127.6704801726
 10
631.227557565
 20
-132.0244948482
 10
633.1810549563
 20
-136.6090968241
 10
634.9138287132
 20
-141.4153115265
 10
636.42248685
 20
-146.4337305646
 10
637.7040760974
 20
-151.6545301474
 10
638.7560876843
 20
-157.0674903146
 10
639.5764622486
 20
-162.6620149423
 10
640.1635938685
 20
-168.427152486
 10
640.5163332064
 20
-174.3516174182
 10
640.6339897585
 20
-180.4238123206
  0
LWPOLYLINE
  5
16B
330
1F
100
AcDbEntity
  8
0
  6
Continuous
 62
     1
370
    25
100
AcDbPolyline
 90
       14
 70
   128
 43
0.0
 10
658.3116592881
 20
-190.6289137184
 10
658.1940027361
 20
-184.556718816
 10
657.8412633982
 20
-178.6322538838
 10
657.2541317782
 20
-172.8671163401
 10
656.4337572139
 20
-167.2725917123
 10
655.3817456271
 20
-161.8596315452
 10
654.1001563797
 20
-156.6388319624
 10
652.5914982429
 20
-151.6204129243
 10
650.8587244859
 20
-146.8141982218
 10
648.9052270947
 20
-142.229596246
 10
646.7348301321
 20
-137.8755815704
 10
644.3517822522
 20
-133.7606773833
 10
641.7607483831
 20
-129.8929388028
 10
641.3744044127
 20
-129.361698007
  0
LWPOLYLINE
  5
16C
330
1F
100
AcDbEntity
  8
0
  6
Continuous
 62
     1
370
    25
100
AcDbPolyline
 90
       49
 70
   128
 43
0.0
 10
475.8461329542
 20
-414.708367722
 10
479.5413588187
 20
-415.0560502414
 10
484.2422260515
 20
-415.2149433615
 10
489.04852927
 20
-415.0700421455
 10
493.95085991
 20
-414.6216302443
 10
498.9396214291
 20
-413.8705854452
 10
504.0050480924
 20
-412.8183779538
 10
509.1372240892
 20
-411.4670675157
 10
514.3261029441
 20
-409.8192993844
 10
519.561527183
 20
-407.8782991434
 10
524.8332482172
 20
-405.6478663919
 10
530.130946405
 20
-403.1323673067
 10
535.4442512536
 20
-400.3367260955
 10
540.7627617192
 20
-397.2664153571
 10
546.0760665678
 20
-393.927445369
 10
551.3737647557
 20
-390.3263523218
 10
556.6454857898
 20
-386.4701855242
 10
561.8809100287
 20
-382.3664936038
 10
567.0697888836
 20
-378.0233097303
 10
572.2019648804
 20
-373.44913589
 10
577.2673915437
 20
-368.652926243
 10
582.2561530628
 20
-363.644069595
 10
587.1584837029
 20
-358.4323710181
 10
591.9647869214
 20
-353.0280326569
 10
596.6656541541
 20
-347.4416337576
 10
601.2518832327
 20
-341.6841099584
 10
605.7144963984
 20
-335.7667318824
 10
610.0447578763
 20
-329.7010830752
 10
614.2341909762
 20
-323.4990373292
 10
618.2745946861
 20
-317.17273544
 10
622.1580597261
 20
-310.7345614409
 10
625.8769840309
 20
-304.1971183596
 10
629.4240876315
 20
-297.5732035481
 10
632.7924269061
 20
-290.8757836305
 10
635.9754081724
 20
-284.1179691211
 10
638.9668005951
 20
-277.3129887589
 10
641.7607483831
 20
-270.4741636126
 10
644.3517822522
 20
-263.6148810036
 10
646.7348301321
 20
-256.7485682997
 10
648.9052270947
 20
-249.8886666304
 10
650.8587244859
 20
-243.0486045755
 10
652.5914982429
 20
-236.2417718775
 10
654.1001563797
 20
-229.4814932312
 10
655.3817456271
 20
-222.7810021995
 10
656.4337572139
 20
-216.1534153082
 10
657.2541317782
 20
-209.6117063699
 10
657.8412633982
 20
-203.1686810871
 10
658.1940027361
 20
-196.8369519842
 10
658.3116592881
 20
-190.6289137184
  0
LWPOLYLINE
  5
16D
330
1F
100
AcDbEntity
  8
0
  6
Continuous
 62
     1
370
    25
100
AcDbPolyline
 90
       53
 70
   128
 43
0.0
 10
566.1130568516
 20
-143.3079073823
 10
564.495882926
 20
-143.04275925
 10
560.6847686902
 20
-142.6496435221
 10
556.7595361384
 20
-142.5603095665
 10
552.7313117688
 20
-142.7750106102
 10
548.611514021
 20
-143.2931380596
 10
544.4118209092
 20
-144.1132232262
 10
540.1441369199
 20
-145.2329414895
 10
535.8205592671
 20
-146.6491188864
 10
531.4533436013
 20
-148.3577411083
 10
527.0548692698
 20
-150.3539648798
 10
522.637604226
 20
-152.6321316877
 10
518.2140696875
 20
-155.1857838207
 10
513.7968046437
 20
-158.0076826744
 10
509.3983303122
 20
-161.08982927
 10
505.0311146464
 20
-164.4234869279
 10
500.7075369936
 20
-167.9992060334
 10
496.4398530043
 20
-171.8068508223
 10
492.2401598926
 20
-175.8356281116
 10
488.1203621447
 20
-180.0741178944
 10
484.0921377751
 20
-184.5103057109
 10
480.1669052233
 20
-189.1316167049
 10
476.3557909875
 20
-193.9249512681
 10
472.6695980851
 20
-198.876722173
 10
469.1187754303
 20
-203.972893087
 10
465.7133882158
 20
-209.19901836
 10
462.4630893815
 20
-214.5402839719
 10
459.3770922526
 20
-219.9815495253
 10
456.4641444234
 20
-225.5073911616
 10
453.7325029609
 20
-231.1021452824
 10
451.1899109995
 20
-236.7499529493
 10
448.8435757925
 20
-242.4348048378
 10
446.700148282
 20
-248.1405866177
 10
444.765704246
 20
-253.8511246305
 10
443.0457270765
 20
-259.5502317358
 10
441.5450922354
 20
-265.2217531954
 10
440.2680534354
 20
-270.8496124655
 10
439.2182305816
 20
-276.4178567675
 10
438.398599511
 20
-281.910702308
 10
437.811483557
 20
-287.3125790195
 10
437.4585469634
 20
-292.6081746957
 10
437.3407901673
 20
-297.7824783951
 10
437.4585469634
 20
-302.8208229918
 10
437.811483557
 20
-307.7089267507
 10
438.398599511
 20
-312.4329338105
 10
439.2182305816
 20
-316.97945346
 10
440.2680534354
 20
-321.3355980953
 10
441.5450922354
 20
-325.4890197512
 10
443.0457270765
 20
-329.4279451027
 10
444.765704246
 20
-333.1412088379
 10
446.700148282
 20
-336.6182853073
 10
448.8435757925
 20
-339.84931836
 10
449.5737719699
 20
-340.8312579069
  0
LWPOLYLINE
  5
16E
330
1F
100
AcDbEntity
  8
0
  6
Continuous
 62
     1
370
    25
100
AcDbPolyline
 90
       52
 70
   128
 43
0.0
 10
468.1287278099
 20
-352.1476119489
 10
466.5212453222
 20
-350.0544197578
 10
464.3778178117
 20
-346.8233867051
 10
462.4433737757
 20
-343.3463102356
 10
460.7233966061
 20
-339.6330465004
 10
459.2227617651
 20
-335.694121149
 10
457.945722965
 20
-331.5406994931
 10
456.8959001113
 20
-327.1845548578
 10
456.0762690407
 20
-322.6380352083
 10
455.4891530866
 20
-317.9140281485
 10
455.136216493
 20
-313.0259243896
 10
455.018459697
 20
-307.9875797929
 10
455.136216493
 20
-302.8132760934
 10
455.4891530866
 20
-297.5176804173
 10
456.0762690407
 20
-292.1158037058
 10
456.8959001113
 20
-286.6229581653
 10
457.945722965
 20
-281.0547138633
 10
459.2227617651
 20
-275.4268545932
 10
460.7233966061
 20
-269.7553331336
 10
462.4433737757
 20
-264.0562260283
 10
464.3778178117
 20
-258.3456880155
 10
466.5212453222
 20
-252.6399062356
 10
468.8675805292
 20
-246.9550543471
 10
471.4101724905
 20
-241.3072466802
 10
474.1418139531
 20
-235.7124925594
 10
477.0547617823
 20
-230.1866509231
 10
480.1407589112
 20
-224.7453853697
 10
483.3910577454
 20
-219.4041197577
 10
486.79644496
 20
-214.1779944848
 10
490.3472676148
 20
-209.0818235708
 10
494.0334605172
 20
-204.1300526659
 10
497.844574753
 20
-199.3367181027
 10
501.7698073047
 20
-194.7154071087
 10
505.7980316744
 20
-190.2792192922
 10
509.9178294222
 20
-186.0407295093
 10
514.117522534
 20
-182.01195222
 10
518.3852065233
 20
-178.2043074312
 10
522.7087841761
 20
-174.6285883257
 10
527.0759998419
 20
-171.2949306677
 10
531.4744741734
 20
-168.2127840722
 10
535.8917392172
 20
-165.3908852185
 10
540.3152737556
 20
-162.8372330855
 10
544.7325387994
 20
-160.5590662776
 10
549.1310131309
 20
-158.5628425061
 10
553.4982287968
 20
-156.8542202842
 10
557.8218064496
 20
-155.4380428873
 10
562.0894904389
 20
-154.318324624
 10
566.2891835506
 20
-153.4982394574
 10
570.4089812985
 20
-152.980112008
 10
574.4372056681
 20
-152.7654109643
 10
578.3624382199
 20
-152.8547449198
 10
581.9061346192
 20
-153.2098350287
  0
LWPOLYLINE
  5
16F
330
1F
100
AcDbEntity
  8
0
  6
Continuous
 62
     1
370
    25
100
AcDbPolyline
 90
       20
 70
   128
 43
0.0
 10
599.6753899862
 20
-282.88077349
 10
599.1755512111
 20
-282.6404653064
 10
598.0649242533
 20
-282.3835927192
 10
596.8361293459
 20
-282.4312857389
 10
595.5265028004
 20
-282.7820952374
 10
594.1758369567
 20
-283.4253620455
 10
592.8251711131
 20
-284.3415408267
 10
591.5155445676
 20
-285.5027939525
 10
590.2867496602
 20
-286.8738373342
 10
589.1761227024
 20
-288.4130125124
 10
588.2174095321
 20
-290.0735524283
 10
587.4397401641
 20
-291.8050024167
 10
586.8667436885
 20
-293.5547532458
 10
586.5158303132
 20
-295.2696396223
 10
586.3976623637
 20
-296.8975555912
 10
586.5158303132
 20
-298.3890377497
 10
586.8667436885
 20
-299.6987681671
 10
587.4397401641
 20
-300.7869513474
 10
588.2174095321
 20
-301.6205233953
 10
588.6762839273
 20
-301.9338484624
  0
LWPOLYLINE
  5
170
330
1F
100
AcDbEntity
  8
0
  6
Continuous
 62
     1
370
    25
100
AcDbPolyline
 90
       20
 70
   128
 43
0.0
 10
630.2236402113
 20
-180.0818660924
 10
629.7238014362
 20
-179.8415579088
 10
628.6131744783
 20
-179.5846853216
 10
627.3843795709
 20
-179.6323783413
 10
626.0747530254
 20
-179.9831878398
 10
624.7240871818
 20
-180.6264546479
 10
623.3734213381
 20
-181.5426334291
 10
622.0637947926
 20
-182.7038865549
 10
620.8349998852
 20
-184.0749299366
 10
619.7243729274
 20
-185.6141051148
 10
618.7656597572
 20
-187.2746450307
 10
617.9879903891
 20
-189.006095019
 10
617.4149939135
 20
-190.7558458482
 10
617.0640805383
 20
-192.4707322247
 10
616.9459125887
 20
-194.0986481936
 10
617.0640805383
 20
-195.5901303521
 10
617.4149939135
 20
-196.8998607695
 10
617.9879903891
 20
-197.9880439498
 10
618.7656597572
 20
-198.8216159977
 10
619.2245341523
 20
-199.1349410648
  0
LWPOLYLINE
  5
171
330
1F
100
AcDbEntity
  8
0
  6
Continuous
 62
     1
370
    25
100
AcDbPolyline
 90
       20
 70
   128
 43
0.0
 10
525.9253899862
 20
-360.7317340925
 10
525.4255512111
 20
-360.4914259089
 10
524.3149242533
 20
-360.2345533216
 10
523.0861293459
 20
-360.2822463414
 10
521.7765028004
 20
-360.6330558398
 10
520.4258369567
 20
-361.2763226479
 10
519.0751711131
 20
-362.1925014292
 10
517.7655445676
 20
-363.353754555
 10
516.5367496602
 20
-364.7247979367
 10
515.4261227024
 20
-366.2639731149
 10
514.4674095321
 20
-367.9245130307
 10
513.6897401641
 20
-369.6559630191
 10
513.1167436885
 20
-371.4057138483
 10
512.7658303132
 20
-373.1206002248
 10
512.6476623637
 20
-374.7485161937
 10
512.7658303132
 20
-376.2399983522
 10
513.1167436885
 20
-377.5497287696
 10
513.6897401641
 20
-378.6379119499
 10
514.4674095321
 20
-379.4714839978
 10
514.9262839272
 20
-379.7848090649
  0
LWPOLYLINE
  5
172
330
1F
100
AcDbEntity
  8
0
  6
Continuous
 62
     1
370
    25
100
AcDbPolyline
 90
       20
 70
   128
 43
0.0
 10
599.6753899863
 20
-112.553217656
 10
599.1755512112
 20
-112.3129094724
 10
598.0649242533
 20
-112.0560368852
 10
596.8361293459
 20
-112.1037299049
 10
595.5265028004
 20
-112.4545394034
 10
594.1758369568
 20
-113.0978062115
 10
592.8251711131
 20
-114.0139849927
 10
591.5155445676
 20
-115.1752381185
 10
590.2867496602
 20
-116.5462815002
 10
589.1761227024
 20
-118.0854566784
 10
588.2174095321
 20
-119.7459965943
 10
587.4397401641
 20
-121.4774465827
 10
586.8667436885
 20
-123.2271974118
 10
586.5158303132
 20
-124.9420837883
 10
586.3976623637
 20
-126.5699997572
 10
586.5158303132
 20
-128.0614819157
 10
586.8667436885
 20
-129.3712123331
 10
587.4397401641
 20
-130.4593955134
 10
588.2174095321
 20
-131.2929675613
 10
588.6762839273
 20
-131.6062926284
  0
LWPOLYLINE
  5
173
330
1F
100
AcDbEntity
  8
0
  6
Continuous
 62
     1
370
    25
100
AcDbPolyline
 90
       20
 70
   128
 43
0.0
 10
452.1753899862
 20
-368.0307110226
 10
451.6755512111
 20
-367.7904028391
 10
450.5649242533
 20
-367.5335302518
 10
449.3361293459
 20
-367.5812232715
 10
448.0265028004
 20
-367.93203277
 10
446.6758369567
 20
-368.5752995781
 10
445.3251711131
 20
-369.4914783593
 10
444.0155445676
 20
-370.6527314851
 10
442.7867496602
 20
-372.0237748668
 10
441.6761227024
 20
-373.562950045
 10
440.7174095321
 20
-375.2234899609
 10
439.9397401641
 20
-376.9549399493
 10
439.3667436885
 20
-378.7046907785
 10
439.0158303132
 20
-380.4195771549
 10
438.8976623637
 20
-382.0474931238
 10
439.0158303132
 20
-383.5389752823
 10
439.3667436885
 20
-384.8487056997
 10
439.9397401641
 20
-385.93688888
 10
440.7174095321
 20
-386.7704609279
 10
441.1762839272
 20
-387.083785995
  0
LWPOLYLINE
  5
174
330
1F
100
AcDbEntity
  8
0
  6
Continuous
 62
     1
370
    25
100
AcDbPolyline
 90
       20
 70
   128
 43
0.0
 10
525.9253899863
 20
-119.8521945862
 10
525.4255512112
 20
-119.6118864026
 10
524.3149242533
 20
-119.3550138153
 10
523.0861293459
 20
-119.4027068351
 10
521.7765028004
 20
-119.7535163335
 10
520.4258369568
 20
-120.3967831416
 10
519.0751711131
 20
-121.3129619229
 10
517.7655445676
 20
-122.4742150487
 10
516.5367496602
 20
-123.8452584304
 10
515.4261227024
 20
-125.3844336086
 10
514.4674095321
 20
-127.0449735244
 10
513.6897401641
 20
-128.7764235128
 10
513.1167436885
 20
-130.526174342
 10
512.7658303132
 20
-132.2410607184
 10
512.6476623637
 20
-133.8689766874
 10
512.7658303132
 20
-135.3604588459
 10
513.1167436885
 20
-136.6701892633
 10
513.6897401641
 20
-137.7583724435
 10
514.4674095321
 20
-138.5919444915
 10
514.9262839273
 20
-138.9052695585
  0
LWPOLYLINE
  5
175
330
1F
100
AcDbEntity
  8
0
  6
Continuous
 62
     1
370
    25
100
AcDbPolyline
 90
       20
 70
   128
 43
0.0
 10
421.6271397612
 20
-300.5020625862
 10
421.1273009861
 20
-300.2617544027
 10
420.0166740283
 20
-300.0048818154
 10
418.7878791209
 20
-300.0525748351
 10
417.4782525754
 20
-300.4033843336
 10
416.1275867317
 20
-301.0466511417
 10
414.7769208881
 20
-301.962829923
 10
413.4672943426
 20
-303.1240830487
 10
412.2384994352
 20
-304.4951264304
 10
411.1278724773
 20
-306.0343016087
 10
410.1691593071
 20
-307.6948415245
 10
409.3914899391
 20
-309.4262915129
 10
408.8184934635
 20
-311.1760423421
 10
408.4675800882
 20
-312.8909287185
 10
408.3494121387
 20
-314.5188446875
 10
408.4675800882
 20
-316.010326846
 10
408.8184934635
 20
-317.3200572633
 10
409.3914899391
 20
-318.4082404436
 10
410.1691593071
 20
-319.2418124915
 10
410.6280337022
 20
-319.5551375586
  0
LWPOLYLINE
  5
176
330
1F
100
AcDbEntity
  8
0
  6
Continuous
 62
     1
370
    25
100
AcDbPolyline
 90
       20
 70
   128
 43
0.0
 10
452.1753899863
 20
-197.7031551886
 10
451.6755512111
 20
-197.462847005
 10
450.5649242533
 20
-197.2059744178
 10
449.3361293459
 20
-197.2536674375
 10
448.0265028004
 20
-197.604476936
 10
446.6758369568
 20
-198.2477437441
 10
445.3251711131
 20
-199.1639225253
 10
444.0155445676
 20
-200.3251756511
 10
442.7867496602
 20
-201.6962190328
 10
441.6761227024
 20
-203.235394211
 10
440.7174095321
 20
-204.8959341269
 10
439.9397401641
 20
-206.6273841153
 10
439.3667436885
 20
-208.3771349444
 10
439.0158303132
 20
-210.0920213209
 10
438.8976623637
 20
-211.7199372898
 10
439.0158303132
 20
-213.2114194483
 10
439.3667436885
 20
-214.5211498657
 10
439.9397401641
 20
-215.609333046
 10
440.7174095321
 20
-216.4429050939
 10
441.1762839273
 20
-216.756230161
  0
ENDSEC
  0
SECTION
  2
OBJECTS
  0
DICTIONARY
  5
C
330
0
100
AcDbDictionary
281
     1
  3
ACAD_GROUP
350
D
  3
ACAD_LAYOUT
350
1A
  3
ACAD_MLINESTYLE
350
17
  3
ACAD_PLOTSETTINGS
350
19
  3
ACAD_PLOTSTYLENAME
350
E
  3
ACAD_SCALELIST
350
47
  3
DWGPROPS
350
177
  0
DICTIONARY
  5
D
102
{ACAD_REACTORS
330
C
102
}
330
C
100
AcDbDictionary
281
     1
  0
DICTIONARY
  5
1A
102
{ACAD_REACTORS
330
C
102
}
330
C
100
AcDbDictionary
281
     1
  3
Layout1
350
1E
  3
Layout2
350
26
  3
Model
350
22
  0
DICTIONARY
  5
17
102
{ACAD_REACTORS
330
C
102
}
330
C
100
AcDbDictionary
281
     1
  3
Standard
350
18
  0
DICTIONARY
  5
19
102
{ACAD_REACTORS
330
C
102
}
330
C
100
AcDbDictionary
281
     1
  0
ACDBDICTIONARYWDFLT
  5
E
102
{ACAD_REACTORS
330
C
102
}
330
C
100
AcDbDictionary
281
     1
  3
Normal
350
F
100
AcDbDictionaryWithDefault
340
F
  0
DICTIONARY
  5
47
102
{ACAD_REACTORS
330
C
102
}
330
C
100
AcDbDictionary
281
     1
  3
A0
350
48
  3
A1
350
49
  3
A2
350
4A
  3
A3
350
4B
  3
A4
350
4C
  3
A5
350
4D
  3
A6
350
4E
  3
A7
350
4F
  3
A8
350
50
  3
A9
350
51
  3
B0
350
52
  3
B1
350
53
  3
B2
350
54
  3
B3
350
55
  3
B4
350
56
  3
B5
350
57
  3
B6
350
58
  3
B7
350
59
  3
B8
350
5A
  3
B9
350
5B
  3
C0
350
5C
  3
C1
350
5D
  3
C2
350
5E
  3
C3
350
5F
  3
C4
350
60
  3
C5
350
61
  3
C6
350
62
  3
C7
350
63
  3
C8
350
64
  3
C9
350
65
  3
D0
350
66
  3
D1
350
67
  3
D2
350
68
  0
XRECORD
  5
177
102
{ACAD_REACTORS
330
C
102
}
330
C
100
AcDbXrecord
280
     1
  1
DWGPROPS COOKIE
  2

  3

  4

  6

  7

  8
b.kav
  9

300
=
301
=
302
=
303
=
304
=
305
=
306
=
307
=
308
=
309
=
 40
0.0
 41
2459741.466002975
 42
2459741.466004861
  1

 90
        0
  0
LAYOUT
  5
1E
102
{ACAD_REACTORS
330
1A
102
}
330
1A
100
AcDbPlotSettings
  1

  2
none_device
  4

  6

 40
0.0
 41
0.0
 42
0.0
 43
0.0
 44
0.0
 45
0.0
 46
0.0
 47
0.0
 48
0.0
 49
0.0
140
0.0
141
0.0
142
1.0
143
1.0
 70
   688
 72
     1
 73
     0
 74
     5
  7

 75
    16
147
1.0
148
0.0
149
0.0
100
AcDbLayout
  1
Layout1
 70
     1
 71
     1
 10
0.0
 20
0.0
 11
420.0
 21
297.0
 12
0.0
 22
0.0
 32
0.0
 14
1.0000000000E+20
 24
1.0000000000E+20
 34
1.0000000000E+20
 15
-1.0000000000E+20
 25
-1.0000000000E+20
 35
-1.0000000000E+20
146
0.0
 13
0.0
 23
0.0
 33
0.0
 16
1.0
 26
0.0
 36
0.0
 17
0.0
 27
1.0
 37
0.0
 76
     0
330
1B
  0
LAYOUT
  5
26
102
{ACAD_REACTORS
330
1A
102
}
330
1A
100
AcDbPlotSettings
  1

  2
none_device
  4

  6

 40
0.0
 41
0.0
 42
0.0
 43
0.0
 44
0.0
 45
0.0
 46
0.0
 47
0.0
 48
0.0
 49
0.0
140
0.0
141
0.0
142
1.0
143
1.0
 70
   688
 72
     1
 73
     0
 74
     5
  7

 75
    16
147
1.0
148
0.0
149
0.0
100
AcDbLayout
  1
Layout2
 70
     1
 71
     2
 10
0.0
 20
0.0
 11
0.0
 21
0.0
 12
0.0
 22
0.0
 32
0.0
 14
0.0
 24
0.0
 34
0.0
 15
0.0
 25
0.0
 35
0.0
146
0.0
 13
0.0
 23
0.0
 33
0.0
 16
1.0
 26
0.0
 36
0.0
 17
0.0
 27
1.0
 37
0.0
 76
     0
330
23
  0
LAYOUT
  5
22
102
{ACAD_REACTORS
330
1A
102
}
330
1A
100
AcDbPlotSettings
  1

  2
none_device
  4
Letter_(8.50_x_11.00_Inches)
  6

 40
6.35
 41
6.35
 42
6.35000508
 43
6.35000508
 44
215.9
 45
279.4
 46
0.0
 47
0.0
 48
0.0
 49
0.0
140
0.0
141
0.0
142
1.0
143
1.0
 70
  1712
 72
     1
 73
     0
 74
     0
  7

 75
     0
147
1.0
148
0.0
149
0.0
100
AcDbLayout
  1
Model
 70
     1
 71
     0
 10
0.0
 20
0.0
 11
279.4
 21
215.9
 12
0.0
 22
0.0
 32
0.0
 14
0.0
 24
0.0
 34
0.0
 15
279.4
 25
215.9
 35
0.0
146
0.0
 13
0.0
 23
0.0
 33
0.0
 16
1.0
 26
0.0
 36
0.0
 17
0.0
 27
1.0
 37
0.0
 76
     0
330
1F
331
29
  0
MLINESTYLE
  5
18
102
{ACAD_REACTORS
330
17
102
}
330
17
100
AcDbMlineStyle
  2
Standard
 70
     0
  3

 62
   256
 51
90.0
 52
90.0
 71
     2
 49
0.5
 62
   256
  6
BYLAYER
 49
-0.5
 62
   256
  6
BYLAYER
  0
ACDBPLACEHOLDER
  5
F
102
{ACAD_REACTORS
330
E
102
}
330
E
  0
SCALE
  5
48
102
{ACAD_REACTORS
330
47
102
}
330
47
100
AcDbScale
 70
     0
300
1:1
140
1.0
141
1.0
290
     1
  0
SCALE
  5
49
102
{ACAD_REACTORS
330
47
102
}
330
47
100
AcDbScale
 70
     0
300
1:2
140
1.0
141
2.0
290
     0
  0
SCALE
  5
4A
102
{ACAD_REACTORS
330
47
102
}
330
47
100
AcDbScale
 70
     0
300
1:4
140
1.0
141
4.0
290
     0
  0
SCALE
  5
4B
102
{ACAD_REACTORS
330
47
102
}
330
47
100
AcDbScale
 70
     0
300
1:5
140
1.0
141
5.0
290
     0
  0
SCALE
  5
4C
102
{ACAD_REACTORS
330
47
102
}
330
47
100
AcDbScale
 70
     0
300
1:8
140
1.0
141
8.0
290
     0
  0
SCALE
  5
4D
102
{ACAD_REACTORS
330
47
102
}
330
47
100
AcDbScale
 70
     0
300
1:10
140
1.0
141
10.0
290
     0
  0
SCALE
  5
4E
102
{ACAD_REACTORS
330
47
102
}
330
47
100
AcDbScale
 70
     0
300
1:16
140
1.0
141
16.0
290
     0
  0
SCALE
  5
4F
102
{ACAD_REACTORS
330
47
102
}
330
47
100
AcDbScale
 70
     0
300
1:20
140
1.0
141
20.0
290
     0
  0
SCALE
  5
50
102
{ACAD_REACTORS
330
47
102
}
330
47
100
AcDbScale
 70
     0
300
1:30
140
1.0
141
30.0
290
     0
  0
SCALE
  5
51
102
{ACAD_REACTORS
330
47
102
}
330
47
100
AcDbScale
 70
     0
300
1:40
140
1.0
141
40.0
290
     0
  0
SCALE
  5
52
102
{ACAD_REACTORS
330
47
102
}
330
47
100
AcDbScale
 70
     0
300
1:50
140
1.0
141
50.0
290
     0
  0
SCALE
  5
53
102
{ACAD_REACTORS
330
47
102
}
330
47
100
AcDbScale
 70
     0
300
1:100
140
1.0
141
100.0
290
     0
  0
SCALE
  5
54
102
{ACAD_REACTORS
330
47
102
}
330
47
100
AcDbScale
 70
     0
300
2:1
140
2.0
141
1.0
290
     0
  0
SCALE
  5
55
102
{ACAD_REACTORS
330
47
102
}
330
47
100
AcDbScale
 70
     0
300
4:1
140
4.0
141
1.0
290
     0
  0
SCALE
  5
56
102
{ACAD_REACTORS
330
47
102
}
330
47
100
AcDbScale
 70
     0
300
8:1
140
8.0
141
1.0
290
     0
  0
SCALE
  5
57
102
{ACAD_REACTORS
330
47
102
}
330
47
100
AcDbScale
 70
     0
300
10:1
140
10.0
141
1.0
290
     0
  0
SCALE
  5
58
102
{ACAD_REACTORS
330
47
102
}
330
47
100
AcDbScale
 70
     0
300
100:1
140
100.0
141
1.0
290
     0
  0
SCALE
  5
59
102
{ACAD_REACTORS
330
47
102
}
330
47
100
AcDbScale
 70
     0
300
1/128" = 1'-0"
140
0.0078125
141
12.0
290
     0
  0
SCALE
  5
5A
102
{ACAD_REACTORS
330
47
102
}
330
47
100
AcDbScale
 70
     0
300
1/64" = 1'-0"
140
0.015625
141
12.0
290
     0
  0
SCALE
  5
5B
102
{ACAD_REACTORS
330
47
102
}
330
47
100
AcDbScale
 70
     0
300
1/32" = 1'-0"
140
0.03125
141
12.0
290
     0
  0
SCALE
  5
5C
102
{ACAD_REACTORS
330
47
102
}
330
47
100
AcDbScale
 70
     0
300
1/16" = 1'-0"
140
0.0625
141
12.0
290
     0
  0
SCALE
  5
5D
102
{ACAD_REACTORS
330
47
102
}
330
47
100
AcDbScale
 70
     0
300
3/32" = 1'-0"
140
0.09375
141
12.0
290
     0
  0
SCALE
  5
5E
102
{ACAD_REACTORS
330
47
102
}
330
47
100
AcDbScale
 70
     0
300
1/8" = 1'-0"
140
0.125
141
12.0
290
     0
  0
SCALE
  5
5F
102
{ACAD_REACTORS
330
47
102
}
330
47
100
AcDbScale
 70
     0
300
3/16" = 1'-0"
140
0.1875
141
12.0
290
     0
  0
SCALE
  5
60
102
{ACAD_REACTORS
330
47
102
}
330
47
100
AcDbScale
 70
     0
300
1/4" = 1'-0"
140
0.25
141
12.0
290
     0
  0
SCALE
  5
61
102
{ACAD_REACTORS
330
47
102
}
330
47
100
AcDbScale
 70
     0
300
3/8" = 1'-0"
140
0.375
141
12.0
290
     0
  0
SCALE
  5
62
102
{ACAD_REACTORS
330
47
102
}
330
47
100
AcDbScale
 70
     0
300
1/2" = 1'-0"
140
0.5
141
12.0
290
     0
  0
SCALE
  5
63
102
{ACAD_REACTORS
330
47
102
}
330
47
100
AcDbScale
 70
     0
300
3/4" = 1'-0"
140
0.75
141
12.0
290
     0
  0
SCALE
  5
64
102
{ACAD_REACTORS
330
47
102
}
330
47
100
AcDbScale
 70
     0
300
1" = 1'-0"
140
1.0
141
12.0
290
     0
  0
SCALE
  5
65
102
{ACAD_REACTORS
330
47
102
}
330
47
100
AcDbScale
 70
     0
300
1-1/2" = 1'-0"
140
1.5
141
12.0
290
     0
  0
SCALE
  5
66
102
{ACAD_REACTORS
330
47
102
}
330
47
100
AcDbScale
 70
     0
300
3" = 1'-0"
140
3.0
141
12.0
290
     0
  0
SCALE
  5
67
102
{ACAD_REACTORS
330
47
102
}
330
47
100
AcDbScale
 70
     0
300
6" = 1'-0"
140
6.0
141
12.0
290
     0
  0
SCALE
  5
68
102
{ACAD_REACTORS
330
47
102
}
330
47
100
AcDbScale
 70
     0
300
1'-0" = 1'-0"
140
12.0
141
12.0
290
     0
  0
ENDSEC
  0
EOF
